Guitar Tabs, Chords and Lyrics


Safe Place   Staind



Band: 	Staind
Song:	Safe Place
Album:	Break The Cycle
Tab:	el sancco (sancco@hotmail.com)

I know most of you people won't be able to play on such a 
low tuning, but you fans who are obsessed enough can now 
play it like Mike Mushok does!  This is all my own work, 
but if you would like to post it on a personal site, just 
email me and i might be kind enough to let you!  It just
not work doing exact timing per space but i have done it
so that ratio speaking everything is in time with each
other.  Just listen to the song and figure it out.  It's
all relevant... somehow.

KEY: *   - Palm mute
     h   - Hammer-on
     p   - Pull-off
     /   - Slide
     x   - Mute string
     < > - Natural Harmonic
INTRO PART 1 - Clean. Chorus.
------------

Bb|-----------------------------------------------------|
Gb|-----------------------------------------------------|
Db|-----------------------------------------------------| PLAY
Bb|--10-------------10----10--8-------------------------|  x3
Eb|---0--------------0-----0--0----0--0-----0--0--0--0--|
Ab|-----------------------------------------------------|
                                 [Rub string with pick]    

Bb|------------------------------|
Gb|------------------------------|
Db|------------------------------|
Bb|--10-------------10----10--8--|
Eb|---0--------------0-----0--0--|
Ab|------------------------------|

INTRO PART 2 - Distorted.
------------    

Bb|-------------------|
Gb|-------------------|
Db|-------------------|
Bb|-------------------|
Eb|----0-3h6-6p3-3-0--|
Ab|----0-3h6-6p3-3-0--|

Bb|-------------------|
Gb|-------------------|
Db|-------------------|
Bb|--5/----10---10-8--|
Eb|--5/-----0----0-0--|
Ab|--5/---------------|\
                       PLAY X3
Bb|-------------------|/
Gb|-------------------|
Db|-------------------|
Bb|-------------------|
Eb|----0-3h6-6p3-3-0--|
Ab|----0-3h6-6p3-3-0--|

Bb|----------------0--|
Gb|----------------0--|
Db|----------------9--|
Bb|--5-----10---10-8--|
Eb|--5------0----0-0--|
Ab|--5-------------0--|

VERSE: - Clean.  Chorus.
------

Bb|-----------------------------------------------------|
Gb|-----------------------------------------------------|
Db|-----------------------------------------------------| PLAY
Bb|--10-------------10----10--8-------------------------|  x3
Eb|---0--------------0-----0--0----0--0-----0--0--0--0--|
Ab|-----------------------------------------------------|
                                 [Rub string with pick]    

Bb|------------------------------|
Gb|------------------------------|
Db|------------------------------|
Bb|--10-------------10----10--8--|
Eb|---0--------------0-----0--0--|
Ab|------------------------------|

PRE-CHORUS: - Distorted.
-----------

Bb|-------------------|
Gb|-------------------|
Db|-------------------|
Bb|-------------------|
Eb|----0-3h6-6p3-3-0--|
Ab|----0-3h6-6p3-3-0--|

Bb|------------------------------------|
Gb|------------------------------------|
Db|------------------------------------|
Bb|--5/----10---10-8----0--------|
Eb|--5/-----0----0-0----0---0-0-0---0--|
Ab|--5/--------------------------------|
                         **PALM MUTE**

Bb|------------------------------------|
Gb|------------------------------------|
Db|------------------------------------|
Bb|--5/----10---10-8----0-0-000-0-0-0--|
Eb|--5/-----0----0-0----0-0-000-0-0-0--|
Ab|--5/--------------------------------|
                        **PALM MUTE**

Bb|------------------------------------|
Gb|------------------------------------|
Db|------------------------------------|
Bb|--5/----10---10-8----0--------|
Eb|--5/-----0----0-0----0---0-0-0---0--|
Ab|--5/--------------------------------|
                         **PALM MUTE**

Bb|------------------------------------|
Gb|------------------------------------|
Db|------------------------------------|
Bb|--5/----10---10-8-------------------|
Eb|--5/-----0----0-0----0-0-000-0-0-0--|
Ab|--5/--------------------------------|
                        **PALM MUTE**

CHORUS: - Distorted.
-------

GUITAR 1

Bb|-----------------------------------------|
Gb|-----------------------------------------|
Db|-----------------------------------------|
Bb|--10-----10----9-10---10-----9h10-10-----|
Eb|--10-----10---10-10---10----10----10-10--|
Ab|--10-----10---10-10---10-10-10----10-10--|\
                                             PLAY x2
Bb|-----------------------------------------|/
Gb|-----------------------------------------|
Db|-----------------------------------------|
Bb|--13-----13---12-13---13-13-13h15-15-12--|
Eb|--12-----12---12-12---12-12-12----12-12--|
Ab|--12-----12---12-12---12----12----12-12--|

Bb|-----------------------------------------|
Gb|-----------------------------------------|
Db|-----------------------------------------|
Bb|--10-----10----9-10---10-----9h10-10-----|
Eb|--10-----10---10-10---10----10----10-10--|
Ab|--10-----10---10-10---10-10-10----10-10--|

Bb|-----------------------------------------|
Gb|-----------------------------------------|
Db|-----------------------------------------|
Bb|--13-----13---12-13----------------------|
Eb|--12-----12---12-12----------------------|
Ab|--12-----12---12-12----------------------|
GUITAR 2:

Bb|---7------7----7--5----5--0--8--8--7--0--|
Gb|-----------------------------------------|
Db|-----------------------------------------|
Bb|-----------------------------------------|
Eb|-----------------------------------------|
Ab|-----------------------------------------|\
                                             PLAY x2
Bb|--12-----12---15/17-17-17-x-15-15-12-12--|/
Gb|-----------------------------------------|
Db|-----------------------------------------|
Bb|-----------------------------------------|
Eb|-----------------------------------------|
Ab|-----------------------------------------|

Bb|--12-------------------------------------|
Gb|---------11---11--9----------------------|
Db|-----------------------------------------|
Bb|-----------------------------------------|
Eb|-----------------------------------------|
Ab|-----------------------------------------|

FIRST CHORUS ENDING: - Distortion.
--------------------

GUITAR 1:

Bb|-----------------------------------------|
Gb|-----------------------------------------|
Db|-----------------------------------------|
Bb|----------------------13-----13---12h13--|
Eb|----------------------12-----12---12-----|
Ab|-----------------------------------------|

GUITAR 2:

Bb|-----------------------------------------|
Gb|----------------------12----------11h12--|
Db|-----------------------------------------|
Bb|-----------------------------------------|
Eb|-----------------------------------------|
Ab|-----------------------------------------|

SECOND CHORUS ENDING: - Distortion.
---------------------

Bb|-----------------------------------------|
Gb|-----------------------------------------|
Db|-----------------------------------------|
Bb|------------------------------------13\--|
Eb|------------------------------------12\--|
Ab|-----------------------------------------|

FINAL CHORUS ENDING:
--------------------

GUITAR 1: (Clean)

Bb|-------------------|
Gb|-------------------|
Db|-------------------|
Bb|--13----13--12h13--|
Eb|--12----12--12-----|
Ab|-------------------|

GUITAR 2: (Distorted)

Bb|-------------------|
Gb|--12----12--11-12--|
Db|-------------------|
Bb|-------------------|
Eb|-------------------|
Ab|-------------------|

BRIDGE:
-------

Bb|-----------------------------------------|
Gb|-----------------------------------------|
Db|-----------------------------------------|
Bb|--8-8-8-------8-8---8-8-8----------------|
Eb|--8-8-8-------8-8---8-8-8----------------|
Ab|--8-8-8---x---8-8---8-8-8--------|\
                                             PLAY x2
Bb|-----------------------------------------|/
Gb|-----------------------------------------|
Db|-----------------------------------------|
Bb|--5-5-5-5-3---6-5------------------------|
Eb|--5-5-5-5-3---6-5------------------------|
Ab|--5-5-5-5-3---6-5------------------|

Bb|-----------------------------------------|
Gb|-----------------------------------------|
Db|-----------------------------------------|
Bb|--8-8-8-------8-8---8-8-8----------------|
Eb|--8-8-8-------8-8---8-8-8----------------|
Ab|--8-8-8---x---8-8---8-8-8--------|

Bb|-----------------------------------------|
Gb|-----------------------------------------|
Db|-----------------------------------------|
Bb|--5-5-5-5-3---6-5------------------------|
Eb|--5-5-5-5-3---6-5------------------------|
Ab|--5-5-5-5-3---6-5------------------------|

OUTRO:
------

GUITAR 1: (Clean)

Bb|--------------------------0--------|
Gb|--0-------------------------0------|
Db|--5-------5---4h5-----5-------4----| PLAY
Bb|--5-------5---5---------5-------5--|  x3
Eb|--0-------0---0-----0--------------|
Ab|-----------------------------------|

Bb|-----------------------------------|
Gb|-----------------------------------|
Db|--5-------5---4h5------------------|
Bb|--5-------5---5--------------------|
Eb|--0-------0---0--------------------|
Ab|-----------------------------------|
GUITAR 2: (Distorted)

Bb|------------------------------12----------|
Gb|--11-----11---9-h-11-11-12-11----12-11-9--|
Db|------------------------------------------| PLAY
Bb|------------------------------------------|  x3
Eb|------------------------------------------|
Ab|------------------------------------------|

Bb|-------------------|
Gb|--11-----11-9h11---|
Db|-------------------|
Bb|-------------------|
Eb|-------------------|
Ab|-------------------|


---------------------------------------------
Transcribed By SANCCO (sancco@hotmail.com)


Important: The song above is NOT stored on the Chordie server. The original song is hosted at www.xguitar.com. Chordie works as a search engine and provides on-the-fly formatting. Chordie does not index songs against artists'/composers' will. To remove this song please click here.

This song is displayed as text-only. Transposing and tuning is only available for chordpro-songs.

Login - add to songbook

Rating click stars to rate

Layout
Accuracy

SHARE PAGE  




You need to log in to post comments