Guitar Tabs, Chords and Lyrics


Cross to Bear   Staind



Staind
Cross To Bear
Chapter V
Date: 9/21/05
Tabber: flammableflame42

Tuning [Two guitars]: Ab,Eb,Ab,Db,Gb,Bb
Guitar 1 and 2 in rows (respectively)

Intro 1

Bb|-------------------|--20---19---------|
Gb|--16---17----------|------------------|
Db|-------------------|------------------|
Ab|-------------------|------------------|
Eb|-------------------|------------------|
Ab|-------------------|------------------|
  |                   |                  |
Bb|-------------------|------------------|
Gb|-------------------|------------------|
Db|-------------------|------------------|
Ab|-------------------|------------------|
Eb|-------------------|------------------|
Ab|-------------------|------------------|

Intro2

Bb|------------------------------|--20-------19-----------------|
Gb|--16-------17-----------------|------------------------------|
Db|------------------------------|------------------------------|
Ab|------------------------------|------------------------------|
Eb|------------------------------|------------------------------|
Ab|------------------------------|------------------------------|
  |                              |                              |
Bb|------------------------------|------------------------------|
Gb|------------------------------|------------------------------|
Db|--2---2---2-2-2-2-------------|--2---2---2-2-2-2--5--5--5-5--|
Ab|--2---2---2-2-2-2--0--0--0-0--|--2---2---2-2-2-2--5--5--5-5--|
Eb|--0---0---0-0-0-0--0--0--0-0--|--0---0---0-0-0-0--3--3--3-3--|
Ab|-------------------0--0--0-0--|------------------------------|

Bb|------------------------------|--20-------19---------------------|
Gb|--16-------17-----------------|----------------------------------|
Db|------------------------------|----------------------------------|
Ab|------------------------------|----------------------------------|
Eb|------------------------------|----------------------------------|
Ab|------------------------------|----------------------------------|
  |                              |                                  |
Bb|------------------------------|----------------------------------|
Gb|------------------------------|----------------------------------|
Db|--2---2---2-2-2-2-------------|--2---2---2-2-2-2--5-5-5-5-5-5-5--|
Ab|--2---2---2-2-2-2--0--0--0-0--|--2---2---2-2-2-2--5-5-5-5-5-5-5--|
Eb|--0---0---0-0-0-0--0--0--0-0--|--0---0---0-0-0-0--3-3-3-3-3-3-3--|
Ab|-------------------0--0--0-0--|----------------------------------|

Bb|------------------------------|--20-------19-----------------|
Gb|--16-------17-----------------|------------------------------|
Db|------------------------------|------------------------------|
Ab|------------------------------|------------------------------|
Eb|------------------------------|------------------------------|
Ab|------------------------------|------------------------------|
  |                              |                              |
Bb|------------------------------|------------------------------|
Gb|------------------------------|------------------------------|
Db|--2---2---2-2-2-2-------------|--2---2---2-2-2-2--5--5--5-5--|
Ab|--2---2---2-2-2-2--0--0--0-0--|--2---2---2-2-2-2--5--5--5-5--|
Eb|--0---0---0-0-0-0--0--0--0-0--|--0---0---0-0-0-0--3--3--3-3--|
Ab|-------------------0--0--0-0--|------------------------------|

Bb|------------------------------|--20-------19----------------------|
Gb|--16-------17-----------------|-----------------------------------|
Db|------------------------------|-----------------------------------|
Ab|------------------------------|-----------------------------------|
Eb|------------------------------|-----------------------------------|
Ab|------------------------------|-----------------------------------|
  |                              |                                   |
Bb|------------------------------|-----------------------------------|
Gb|------------------------------|-----------------------------------|
Db|--2---2---2-2-2-2-------------|--7-7-7-7-7-7-7-7-9-9-9-9-9-9-9-9--|
Ab|--2---2---2-2-2-2--0--0--0-0--|--7-7-7-7-7-7-7-7-9-9-9-9-9-9-9-9--|
Eb|--0---0---0-0-0-0--0--0--0-0--|--5-5-5-5-5-5-5-5-7-7-7-7-7-7-7-7--|
Ab|-------------------0--0--0-0--|-----------------------------------|

Verse

Bb|-(19)--------------|-(19)--------------|
Gb|-------------------|-------------------|
Db|-------------------|-------------------|
Ab|-------------------|-------------------|
Eb|-------------------|-------------------|
Ab|-------------------|-------------------|
  |                   |                   |
Bb|-------------------|-------------------|
Gb|-------------------|-------------------|
Db|--9----10----------|--9----9-----------|
Ab|-------------------|-------10----------|
Eb|-------------------|-------------------|
Ab|-------------------|-------------------|

Bb|-------------------|-------------------|
Gb|--------------0----|-------------12*---|
Db|-------------------|-------------------|
Ab|-----------10---10-|-----------7*--7*--|
Eb|-------------------|-------------------|
Ab|-------------------|-------------------|
  |                   |                   |
Bb|-------------------|-------------------|
Gb|----0--------------|----0--------------|
Db|--9----10----------|--9----------------|
Ab|-------------------|-------10----------|
Eb|-------------------|-------------------|
Ab|-------------------|-------------------|

Bb|-------------------|-------------------|
Gb|--------------0----|-------------12*---|
Db|-------------------|-------------------|
Ab|-----------10---10-|-----------7*--7*--|
Eb|-------------------|-------------------|
Ab|-------------------|-------------------|
  |                   |                   |
Bb|-------------------|-------------------|
Gb|----0--------------|----0--------------|
Db|--9----10----------|--9----------------|
Ab|-------------------|-------10----------|
Eb|-------------------|-------------------|
Ab|-------------------|-------------------|

Bb|-------------------|-------------------|
Gb|--------------0----|-------------12*---|
Db|-------------------|-------------------|
Ab|-----------10---10-|-----------7*--7*--|
Eb|-------------------|-------------------|
Ab|-------------------|-------------------|
  |                   |                   |
Bb|-------------------|-------------------|
Gb|----0--------------|----0--------------|
Db|--9----10----------|--9----------------|
Ab|-------------------|-------10----------|
Eb|-------------------|-------------------|
Ab|-------------------|-------------------|

Bb|-------------------|-------------------|
Gb|--------------0----|-------------------|
Db|-------------------|-------------------|
Ab|-----------10---10-|-------------------|
Eb|-------------------|-------------------|
Ab|-------------------|-------------------|
  |                   |                   |
Bb|-------------------|-------------------|
Gb|----0--------------|----0--------------|
Db|--9----10----------|--9----------------|
Ab|-------------------|-------10----------|
Eb|-------------------|-------------------|
Ab|-------------------|-------------------|

PreChorus

Bb|------------------------------|--20-------19-----------------|
Gb|--16-------17-----------------|------------------------------|
Db|------------------------------|------------------------------|
Ab|------------------------------|------------------------------|
Eb|------------------------------|------------------------------|
Ab|------------------------------|------------------------------|
  |                              |                              |
Bb|------------------------------|------------------------------|
Gb|------------------------------|------------------------------|
Db|--2---2---2-2-2-2-------------|--2---2---2-2-2-2--5--5--5-5--|
Ab|--2---2---2-2-2-2--0--0--0-0--|--2---2---2-2-2-2--5--5--5-5--|
Eb|--0---0---0-0-0-0--0--0--0-0--|--0---0---0-0-0-0--3--3--3-3--|
Ab|-------------------0--0--0-0--|------------------------------|

Bb|------------------------------|--20-------19----------------------|
Gb|--16-------17-----------------|-----------------------------------|
Db|------------------------------|-----------------------------------|
Ab|------------------------------|-----------------------------------|
Eb|------------------------------|-----------------------------------|
Ab|------------------------------|-----------------------------------|
  |                              |                                   |
Bb|------------------------------|-----------------------------------|
Gb|------------------------------|-----------------------------------|
Db|--2---2---2-2-2-2--5--5--5-5--|--7-7-7-7-7-7-7-7-5-5-5-5-5-5-5-5--|
Ab|--2---2---2-2-2-2--5--5--5-5--|--7-7-7-7-7-7-7-7-5-5-5-5-5-5-5-5--|
Eb|--0---0---0-0-0-0--3--3--3-3--|--5-5-5-5-5-5-5-5-3-3-3-3-3-3-3-3--|
Ab|------------------------------|-----------------------------------|

Chorus

Bb|---------------------|-----------------------------|
Gb|---------------------|-----------------------------|
Db|---------------------|-----------------------------|
Ab|--3---3---3-3-3-3----|--7---7---7-7-7-7-7--7--7-7--|
Eb|--3---3---3-3-3-3----|--7---7---7-7-7-7-7--7--7-7--|
Ab|--3---3---3-3-3-3----|--7---7---7-7-7-7-7--7--7-7--|
  |          . .        |          . . . .            |
Bb|---------------------|-----------------------------|
Gb|---------------------|-----------------------------|
Db|---------------------|-----------------------------|
Ab|---------------------|-----------------------------|
Eb|---------------------|-----------------------------|
Ab|---------------------|-----------------------------|

Bb|---------------------|-----------------------------------|
Gb|---------------------|-----------------------------------|
Db|---------------------|-----------------------------------|
Ab|--5---5---5-5-5-5----|--7-7-7-7-7-7-7-7-7-7-7-7-7-7-7-7--|
Eb|--5---5---5-5-5-5----|--7-7-7-7-7-7-7-7-7-7-7-7-7-7-7-7--|
Ab|--5---5---5-5-5-5----|--7-7-7-7-7-7-7-7-7-7-7-7-7-7-7-7--|
  |          . .        |                                   |
Bb|---------------------|-----------------------------------|
Gb|---------------------|-----------------------------------|
Db|---------------------|-----------------------------------|
Ab|---------------------|-----------------------------------|
Eb|---------------------|-----------------------------------|
Ab|---------------------|-----------------------------------|

Bb|---------------------|-----------------------------|
Gb|---------------------|-----------------------------|
Db|---------------------|-----------------------------|
Ab|--3---3---3-3-3-3----|--7---7---7-7-7-7-7--7--7-7--|
Eb|--3---3---3-3-3-3----|--7---7---7-7-7-7-7--7--7-7--|
Ab|--3---3---3-3-3-3----|--7---7---7-7-7-7-7--7--7-7--|
  |          . .        |          . . . .            |
Bb|---------------------|-----------------------------|
Gb|---------------------|-----------------------------|
Db|---------------------|-----------------------------|
Ab|---------------------|-----------------------------|
Eb|---------------------|-----------------------------|
Ab|---------------------|-----------------------------|

Bb|---------------------|-----------------------------------|
Gb|---------------------|-----------------------------------|
Db|---------------------|-----------------------------------|
Ab|--5---5---5-5-5-5----|--2-2-2-2-2-2-2-2-2-2-2-2-2-2-2-2--|
Eb|--5---5---5-5-5-5----|--2-2-2-2-2-2-2-2-2-2-2-2-2-2-2-2--|
Ab|--5---5---5-5-5-5----|--2-2-2-2-2-2-2-2-2-2-2-2-2-2-2-2--|
             . .

Bridge

Bb|-----19-20-----19-20-----19-20--22-20-19-(19)---|
Gb|--16--------16--------16------------------------|
Db|------------------------------------------------|
Ab|------------------------------------------------|
Eb|------------------------------------------------|
Ab|------------------------------------------------|
prechorus in background

Outro

Bb|----------20-19-----------20-19--------|
Gb|--16-17-----------16-17-----------21---|
Db|---------------------------------------|
Ab|---------------------------------------|
Eb|---------------------------------------|
Ab|---------------------------------------|



Important: The song above is NOT stored on the Chordie server. The original song is hosted at www.xguitar.com. Chordie works as a search engine and provides on-the-fly formatting. Chordie does not index songs against artists'/composers' will. To remove this song please click here.

This song is displayed as text-only. Transposing and tuning is only available for chordpro-songs.

Login - add to songbook

Rating click stars to rate

Layout
Accuracy

SHARE PAGE  




You need to log in to post comments