Guitar Tabs, Chords and Lyrics


Everything Changes  Staind

If you jus[E]t walked away
What could I [A]really say?
would it matter [C#m]anyway?
would it change how you [A]feel?

I am the [E]mess you chose
the closet you [A]can not close
The devil in you [C#m]I suppose
'cuz the wounds never [A]heal

(Chorus)
[E]But everything changes
if I could[A] turn back the years
If you c[C#m]ould learn to forgive me
then I could [A]learn to feel


Verse:
Sometimes the things I say
In moments of disarray
Succumbing to the games we play
To make sure that it's real

(Chorus)

(here comes a part with a guitar solo, not what staind should be doing though

'cause they're not very good at it *lol*, anyway the chords goes like this)

[C#m](coming[A] out [E]on th[B]e last time you end on an A)

Verse:
When it's just me and you
Who knows what we could do
If we can just make it through
through this part of the day

(Chorus)


Then we could
[C#m]Stay here together
And we could
[A]Conquer the world
If we could
[C#m]Say that forever
It's more than [A]just a word

If you just walked away
What could I really say?
It wouldn't matter anyway.

======================================================================
Tabbed By: el mandito
*Guitar I: Acoustic - Standard(EADGBE)
*Guitar II: Electric - Drop D(DADGBE)
* Well this song was one of hardest i've had to tab. Strangely the solo
was easier to figure out than the damn Riff. If you really want to
learn this song then take about an hour or two (or three) to figure it
out cuz it is a tough one. Well once again...Enjoy!

Guitar I - Intro/Riff 1/Chorus/Interlude/Outro
E|--0--0--0--2--||
B|--0--0--0--0--||
G|--1--2--x--2--|| Figure Out Strumming
D|--2--2--2--2--||
A|--2--0--4--0--||
E|--------------||


Guitar II - Intro/Riff 1 - Clean
E|----0-4-7-0-------0---7-0-------7-0-------4h5-4-0-----0---5-0-------||
B|--0---------0---0---0-----0---0-----0---0-----------0---0-----0---0-||
G|--------------------------------------------------------------------||
D|--------------------------------------------------6-------------6---||
A|--------------7-------------7---------7-----------------------------||
D|--------------------------------------------------------------------||
E|-5-0-------2h4-0-------0---4-0-------4-0-------4h5-4--4h5-4---4h5-4-||
B|-----0---0-------0---0---0-----0---0-----0---0------5------5-------5||
G|-------------------1-------------1---------1------------------------||
D|-------6------------------------------------------------------------||
A|--------------------------------------------------------------------||
D|--------------------------------------------------------------------||


Guitar II - Chorus - Light Distortion
E|--------------||
B|--------------||
G|--1-----6-----|| Figure Out Strumming
D|--2--7--6--7--||
A|--2--7--4--7--||
D|-----7-----7--||


Guitar II - Riff 1 - Clean
E|----0-4-7-0-------0---7-0-------7-0-------4h5-4-0-----0---5-0-------||
B|--0---------0---0---0-----0---0-----0---0-----------0---0-----0---0-||
G|--------------------------------------------------------------------||
D|--------------------------------------------------6-------------6---||
A|--------------7-------------7---------7-----------------------------||
D|--------------------------------------------------------------------||
E|-5-0-------2h4-0-------0---4-0-------4-0-------4h5-4--4h5-4---4h5-4-||
B|-----0---0-------0---0---0-----0---0-----0---0------5------5-------5||
G|-------------------1-------------1---------1------------------------||
D|-------6------------------------------------------------------------||
A|--------------------------------------------------------------------||
D|--------------------------------------------------------------------||


Guitar II - Chorus - Light Distortion
E|--------------||
B|--------------||
G|--1-----6-----|| Figure Out Strumming
D|--2--7--6--7--||
A|--2--7--4--7--||
D|-----7-----7--||


Guitar II - Solo - Light Distortion
E|--------------------------------------------------------------------||
B|--8h9-9-7-5-4-4-4h5-2/-12h14-12-10-9-10-10h12-----------------------||
G|----------------------------------------------11--11-13-13h14-13----||
D|--------------------------------------------------------------------||
A|--------------------------------------------------------------------||
D|--------------------------------------------------------------------||
E|--------------------------------------------14h16-16-14-------------||
B|--------------------16h17-16----18h19-17----------------17-16h17-16-||
G|--13-13-13-13-14-16----------18----------20-------------------------||
D|--------------------------------------------------------------------||
A|--------------------------------------------------------------------||
D|--------------------------------------------------------------------||
E|--------------------------------------------------------------------||
B|--12-12h14----------------------------------------------------------||
G|-----------9-8-9-8-8/6----------------------------------------------||
D|--------------------------------------------------------------------||
A|--------------------------------------------------------------------||
D|--------------------------------------------------------------------||

             [-]  [-]                      
Guitar II - Interlude - Clean
E|----0-4-7-0-------0---7-0-------7-0-------4h5-4-0-----0---5-0-------||
B|--0---------0---0---0-----0---0-----0---0-----------0---0-----0---0-||
G|--------------------------------------------------------------------||
D|--------------------------------------------------6-------------6---||
A|--------------7-------------7---------7-----------------------------||
D|--------------------------------------------------------------------||
E|-5-0-------2h4-0-------0---4-0-------4-0-------4h5-4--4h5-4---4h5---||
B|-----0---0-------0---0---0-----0---0-----0---0------5------5-----4-5||
G|-------------------1-------------1---------1------------------------||
D|-------6------------------------------------------------------------||
A|--------------------------------------------------------------------||
D|--------------------------------------------------------------------||


Guitar II - Chorus - Light Distortion
E|--------------||
B|--------------||
G|--1-----6-----|| Figure Out Strumming
D|--2--7--6--7--||       Play 2x
A|--2--7--4--7--||
D|-----7-----7--||


Guitar II - Outro - Clean
E|----0-4-7-0-------0---7-0-------7-0-------4h5-4-0-----0---5-0-------||
B|--0---------0---0---0-----0---0-----0---0-----------0---0-----0---0-||
G|--------------------------------------------------------------------||
D|--------------------------------------------------6-------------6---||
A|--------------7-------------7---------7-----------------------------||
D|--------------------------------------------------------------------||
E|-5-0-------2h4-0-------0---4-0-------4-0-------4h5------------------||
B|-----0---0-------0---0---0-----0---0-----0---0----------------------||
G|-------------------1-------------1---------1------------------------||
D|-------6------------------------------------------------------------||
A|--------------------------------------------------------------------||
D|--------------------------------------------------------------------||


Important: The song above is NOT stored on the Chordie server. The original song is hosted at www.xguitar.com. Chordie works as a search engine and provides on-the-fly formatting. Chordie does not index songs against artists'/composers' will. To remove this song please click here.

Text color:
Chord color:
Chord grids: 
Font size:    
Page size: 

A B C#m E
variations - click chord images

Login - add to songbook

Transpose chords

Tuning

Rating click stars to rate

Layout
Accuracy

SHARE PAGE  




You need to log in to post comments

lokee420 (report)

the a chord should be an Asus starting from the E string (thinkist) it would be played 002200

Also the tuning for this is 1/2 step down

katcha (report)

ok, it's so good for beginners i think.

ravenblack (report)

Try playing am in place of A works for me...........