Guitar Tabs, Chords and Lyrics


Falling   Staind



Staind- Falling
Tuning- CGCFAD
i know this isn't traditional Staind tuning but
this is how i tabbed it...Enjoy!

Intro
|-----------------------------------|
|-----------------------------------|
|-----------------------------------|8x
|--5/7------------------------------|
|--3/5-----3p0-------6-6-6-6-5-5-5--|
|------0-0-3p0-0-0-0-6-6-6-6-5-5-5--|
pm     . .     . . .

Verse
|-----------------------------------------|
|-----------------------------------------|
|-----------------------------------------|2x
|-----------------------------------------|
|--3h5--3p0--1p0--3p0--3h5--3p0--1p0--3~--|
|-----------------------------------------|

|-----------------------------------------|
|--3---------------3----------------------|
|----2-0---3p2-------2-0---3p2------------|2x
|--------3-----5p3-------3-----0-3--------|
|-----------------------------------------|
|-----------------------------------------|

Intro 4x

Chorus- This may not be 100% accurate
|-------------------------------|
|-------------------------------|
|--15~-15-14-10-17~~14--7\2--9--|2x
|-------------------------------|
|--13~-13-12--8-15~~12--5\0--7--|
|-------------------------------|

Verse

Intro 4x

Chorus 2x

Bridge- This may not be 100% accurate
|-------------------------------------------------------------------|
|-------------------------------------------------------------------|
|----------2---------------2---------------2-------2-------2--------|
|----------0---------------0---------------0-------0-------0--------|
|--0-2-0-2---3-2-000-2-0-2---3-2-000-2-0-2---3-2-3---3-2-3---3-2-3--|
|--0-2-0-2---3-2-000-2-0-2---3-2-000-2-0-2---3-2-3---3-2-3---3-2-3--|
pm . . . .   . . ... . . .   . . ... . . .   . . .   . . .   . . .
play this on every *

|---------------------------------------------------------------------------
|---------------------------------------------------------------------------
|--14----------14----------15----------------------14----------15-----------
|-----15-14-15----15-14-15----15-14-15-12-15-14-15----15-14-15----15-14-15--
|---------------------------------------------------------------------------
|---------------------------------------------------------------------------


|---------------------------------------------------------------------------
|---------------------------------------------------------------------------
|---------------------------14----------15----------14----------------------
|--12-15-14-15----15-14-15-----15-14-15----15-14-15----15-14-15-12-15-14-15-
|--------------15-----------------------------------------------------------
|---------------------------------------------------------------------------
                           *

|---------------------------------------------------------------------------
|---------------------------------------------------------------------------
|--14----------15-----------------------------------14----14----15----14----
|-----15-14-15----15-14-15-12-15-14-15----15-14-15-----15----15----15----15-
|--------------------------------------15-----------------------------------
|---------------------------------------------------------------------------
                                                   *

|---------------------------------------------------------------------------|
|---------------------------------------------------------------------------|
|--------14----15----14----------------15----------17-17-17-17-17-17-17-17--|
|--12-15----15----15----15----15-14-15----15-14-15--------------------------|
|--------------------------15----------------------|----gradual bend------|-|
|---------------------------------------------------------------------------|
                                                                           *
Chorus 4x

Outro-Play Intro 3x then
|-----------------------------------|
|-----------------------------------|
|-----------------------------------|
|--5/7------------------------------|
|--3/5-----3p0-------6-6-6-6-5------|
|------0-0-3p0-0-0-0-6-6-6-6-5------|


Important: The song above is NOT stored on the Chordie server. The original song is hosted at www.xguitar.com. Chordie works as a search engine and provides on-the-fly formatting. Chordie does not index songs against artists'/composers' will. To remove this song please click here.

This song is displayed as text-only. Transposing and tuning is only available for chordpro-songs.

Login - add to songbook

Rating click stars to rate

Layout
Accuracy

SHARE PAGE  




You need to log in to post comments