Guitar Tabs, Chords and Lyrics


King of All Excuses   Staind



Staind: King of All Excuses (Chapter V)
Date 8/30/05
Tabber: flammableflame42

Tuning: Drop A (AEADGB) on a baritone

Intro
|-------------------------|
|-------------------------|
|-------------------------|
|--3/2p0-2--3/2p0-2--2/3--| 6x
|--3/2p0-2--3/2p0-2--2/3--|
|--3/2p0-2--3/2p0-2--2/3--|

Verse
|---------------------------------|
|---------------------------------|
|---------------------------------|
|---------------------------------| 2x
|--222-----555--------------------|
|------555-----444-555-000-2-2-2--|
   ... ... ... ... ... ... . . .

|---------------------------------|
|---------------------------------|
|---------------------------------|
|--444-----777--------------------|
|--222-555-555-444-555-000-2-2-2--|
|------555-----444-555-000-2-2-2--|
   ... ... ... ... ... ... . . .

|-------------------------------|
|-------------------------------|
|-------------------------------|
|--444-----777------------------|
|--222-555-555-444-55555-55555--|
|------555-----444-55555-55555--|

Chorus
|---------------------------------------------------------|
|---------------------------------------------------------|
|--------------------5555/44--------------------44444444--|
|--7--7--3-3---0---0-xxxx-xx--7--7--3-3---0---0-xxxxxxxx--| 2x
|--7--7--3-3---0---0-3333/22--7--7--3-3---0---0-22222222--|
|--7--7--3-3---0---0----------7--7--3-3---0---0-----------|

|--8---8---8-----6-----6---6---6-----|
|----5---5---5-------5---5---5---5---|
|------------------------------------|
|------------------------------------|
|------------------------------------|
|------------------------------------|

Intro Riff
Verse
Chorus
Bridge
|---------------------------------------------------|
|---------------------------------------------------|
|---------------------------------------------------|
|---------------------------------------------------|
|--00000000-00000000-00000000-00000000--4x-then--0--|
|---------------------------------------------------|

Bridge b (2x)
|----------------------------------------------|
|----------------------------------------------|
|----------------------------------------------|
|--2/3-33-3/2-2--999-55--2/3-33-3/2-2-9--5-----|
|--2/3-33-3/2-2--999-55--2/3-33-3/2-2-9--5-----|
|--2/3-33-3/2-2--999-55--2/3-33-3/2-2-9--5-----|
       ..                    ..

|------------------------------------------------|
|------------------------------------------------|
|------------------------------------------------|
|--2/3-33-3/2-2--999-55--2/3-33-3/2-2-3333/2-2---|
|--2/3-33-3/2-2--999-55--2/3-33-3/2-2-3333/2-2---|
|--2/3-33-3/2-2--999-55--2/3-33-3/2-2-3333/2-2---|
       ..                    ..
Chorus


Important: The song above is NOT stored on the Chordie server. The original song is hosted at www.xguitar.com. Chordie works as a search engine and provides on-the-fly formatting. Chordie does not index songs against artists'/composers' will. To remove this song please click here.

This song is displayed as text-only. Transposing and tuning is only available for chordpro-songs.

Login - add to songbook

Rating click stars to rate

Layout
Accuracy

SHARE PAGE  




You need to log in to post comments