Guitar Tabs, Chords and Lyrics


Paper Jesus   Staind



Staind: Paper Jesus (Chapter V)
Date: 8/29/2005
Tabber: flammableflame42

Tuning: Drop C (CGCFAD) (yes this song is actually in drop C)

Intro
|-------------------------------------------------------------------------|
|-------------------------------------------------------------------------|
|--666-555---------------13-15-15-15-15-13-12-13-13-15-15-15-15-13-12-13--|
|--666-555-666-555-1111---------------------------------------------------| 4x
|--444-333-666-555-1111---------------------------------------------------|
|----------666-555-1111---------------------------------------------------|
                         *Obviously a second guitar plays this part, don't think you actually have to switch from the 1st fret to the 13th right away.

|-------------------------|
|-------------------------|
|--666-555-333-555-66-88--|
|--666-555-333-555-66-88--|
|--444-333-111-333-44-66--|
|-------------------------|

Prelude
|---------------------------------------------------|
|---------------------------------------------------|
|--10h12-10h12-13p12-10h12-10h12-10h12-13p12-10h12--|
|---------------------------------------------------| 2x
|---------------------------------------------------|
|---------------------------------------------------|

Verse
|---------------------------------------------------------|
|---------------------------------------------------------|
|-----------------------------------666-555---------------|
|--00000000000000000000000000000000-666-555-666-555-1111--| 5x
|--00000000000000000000000000000000-444-333-666-555-1111--|
|--00000000000000000000000000000000---------666-555-1111--|
   *32 C5 Chords
|----------------------------------------------------------|
|----------------------------------------------------------|
|-----------------------------------666-555-333-555-66-88--|
|--00000000000000000000000000000000-666-555-333-555-66-88--|
|--00000000000000000000000000000000-444-333-111-333-44-66--|
|--00000000000000000000000000000000------------------------|

Chorus
Guitar 1
|------------------------------------------------------|
|------------------------------------------------------|
|--55555555-5~---------------33333333-3~---------------|
|--55555555-5~--33333333-3~--33333333-3~--66666666-6~--|
|--33333333-3~--33333333-3~--11111111-1~--66666666-6~--|
|---------------33333333-3~---------------66666666-6~--|
   ........     ........     ........     ........
Guitar 2 (not exact timing)
|----------------------------------------------------------------------------|
|--11-11-11-11-11-11/9--9--9--9--9--99--9--9--9--9--9/7--7--7--7--7--7\(11)--|
|--x--x--x--x--x--x--x--x--x--x--x--xx--x--x--x--x--x-x--x--x--x--x--x-------|
|--9--9--9--9--9--9-/7--7--7--7--7--77--7--7--7--7--7/5--5--5--5--5--5\(9)---|
|----------------------------------------------------------------------------|
|----------------------------------------------------------------------------|

Prelude
Verse
Chorus
Bridge (I cannot work it out so a little help would be appreciated)

Prechorus
|----------------------------------------------------|
|----------------------------------------------------|
|----------------------------------------------------|
|--000000000000000000000000000000000000000000000000--|
|--000000000000000000000000000000000000000000000000--|
|--000000000000000000000000000000000000000000000000--|

|-------------------------|
|-------------------------|
|--666-555-333-555-66-88--|
|--666-555-333-555-66-88--|
|--444-333-111-333-44-66--|
|-------------------------|

Chorus

Outro
|---------------------------------------------------------|
|---------------------------------------------------------|
|-----------------------------------666-555---------------|
|--00000000000000000000000000000000-666-555-666-555-1111--| 2x
|--00000000000000000000000000000000-444-333-666-555-1111--|
|--00000000000000000000000000000000---------666-555-1111--|
   *play this riff (the C5's) before...

|-------------------------|
|-------------------------|
|--666-555----------------|
|--666-555-666-555-11-55--| 3x
|--444-333-666-555-11-55--|
|----------666-555-11-55--|

|-------------------------|
|-------------------------|
|--666-555-333-555-66-88--|
|--666-555-333-555-66-88--|
|--444-333-111-333-44-66--|


Important: The song above is NOT stored on the Chordie server. The original song is hosted at www.xguitar.com. Chordie works as a search engine and provides on-the-fly formatting. Chordie does not index songs against artists'/composers' will. To remove this song please click here.

This song is displayed as text-only. Transposing and tuning is only available for chordpro-songs.

Login - add to songbook

Rating click stars to rate

Layout
Accuracy

SHARE PAGE  




You need to log in to post comments