Guitar Tabs, Chords and Lyrics


Please   Staind



Song Title: Please
Artist: Staind
Album: Chapter V
Tabber: MasterFish11

OK. Here's the tab for Please off of Staind's new CD. Enjoy.

Tuning: Db, Ab, Db, Gb, Bb, eb (drop D, Half-Step Down)

Intro (Guitar 1)

Eb|----0---------0---------0---------0--------0--------0---------0----------0------------|
Bb|-------0---------0---------0---------0--------0--------0---------0----------0---------|
Gb|-4--------0-------------------------------2--------0----------------------------------|   (x6)
Db|---------------------4----------0----------------------------4----------0-------------|
Ab|--------------------------------------------------------------------------------------|
Db|--------------------------------------------------------------------------------------|

Intro (Guitar 2) :: play after the first two times of the intro

Eb|-----|
Bb|-----|
Gb|-----|    (x4)
Db|--2--|
Ab|--2--|
Db|--2--|

Verse (first part)  play 4 times

           Eb|----0---------0---------0---------0--------0--------0---------0----------0------------|
           Bb|-------0---------0---------0---------0--------0--------0---------0----------0---------|
  -G1      Gb|-4--------4---------4---------4---------0--------0---------0---------0----------------|
  |        Db|--------------------------------------------------------------------------------------|
  |        Ab|--------------------------------------------------------------------------------------|
  |        Db|--------------------------------------------------------------------------------------|
  |
  |                 (palm muted)
  | 	      Eb|---------------------------------------------------------------------------------------|
  |        Bb|---------------------------------------------------------------------------------------|
  -G2      Gb|---------------------------------------------------------------------------------------|
           Db|--2---2------------------------5---------4---4-----------------------------5-----------|
           Ab|--2---2-----same---------------5---------4---4-------same------------------5-----------|
           Db|--2---2------------------------5---------4---4-----------------------------5-----------|



Verse (second part)

        Eb|----0---------0---------0---------0--------0--------0---------0----------0------------|
        Bb|-------0---------0---------0---------0--------0--------0---------0----------0---------|
    G1  Gb|-4--------0-------------------------------2--------0----------------------------------|   (x2)
        Db|---------------------4----------0----------------------------4----------0-------------|
        Ab|--------------------------------------------------------------------------------------|
        Db|--------------------------------------------------------------------------------------|

(palm muted)
	       Eb|--------------------------------------|
        Bb|--------------------------------------|
    G2  Gb|--------------------------------------|   (x4)
        Db|--2-2-2--5-5-5--4-4-4--0-0-0----------|
        Ab|--2-2-2--5-5-5--4-4-4--0-0-0----------|
        Db|--2-2-2--5-5-5--4-4-4--0-0-0----------|

Chorus

Eb|------------------------------------------------------|
Bb|------------------------------------------------------|
Gb|------------------------------------------------------|
Db|--10-----12-----9------2-----10-----12-----9------10--|
Ab|--10-----12-----9------2-----10-----12-----9------10--|
Db|--10-----12-----9------2-----10-----12-----9------10--|

Bridge

Guitar 1 Plays

Eb|-------------------|
Bb|-------------------|
Gb|-------------------|    (x4)
Db|--2~ ------10~ ----|
Ab|--2~ ------10~ ----|
Db|--2~ ------10~ ----|

Guitar 2 Plays lead

Eb|-------------------------------|
Bb|--0~ --8-7-5-1~ --8-7-5-|  (x4)
Gb|-------------------------------|




Final Chorus Lead

Eb|-----------------------------------------------------------------------------|
Bb|--12-10-8-7-5-3--10-8-7-5-3-1--7-7-7-7-7-7--8-8-8-10-10-10-12-12-12-15-15-15-|  (x4)
Gb|-----------------------------------------------------------------------------|


End Guitar 1 ringing on

Eb|-0-|

And Guitar 2 ringing on

Db|-2-|
Ab|-2-|
Db|-2-|



Important: The song above is NOT stored on the Chordie server. The original song is hosted at www.xguitar.com. Chordie works as a search engine and provides on-the-fly formatting. Chordie does not index songs against artists'/composers' will. To remove this song please click here.

This song is displayed as text-only. Transposing and tuning is only available for chordpro-songs.

Login - add to songbook

Rating click stars to rate

Layout
Accuracy

Jango Player

SHARE PAGE  




You need to log in to post comments