Guitar Tabs, Chords and Lyrics


Reply   Staind



Staind- Reply
Tuning- Db Ab Db Gb Bb eb

Intro
|----------------------------------|----------------------------------|
|----------------------------------|----------------------------------|
|----------------------------------|----------------------------------|
|--9-9-9-9-9-9-9-9-7-7-7-7-7-7-7-7-|-9-9-9-9-9-9-9-9-7-7-7-7-7-7-7-7--|
|--7-7-7-7-7-7-7-7-5-5-5-5-5-5-5-5-|-7-7-7-7-7-7-7-7-5-5-5-5-5-5-5-5--|
|--9-9-9-9-9-9-9-9-7-7-7-7-7-7-7-7-|-9-9-9-9-9-9-9-9-7-7-7-7-7-7-7-7--|

|----------------------------------|----------------------------------|
|----------------------------------|----------------------------------|
|----------------------------------|----------------------------------|
|--5-5-5-5-5-5-5-5-2-2-2-2-2-2-2-2-|-9-9-9-9-9-9-9-9-7-7-7-7-7-7-7-7--|
|--3-3-3-3-3-3-3-3-0-0-0-0-0-0-0-0-|-7-7-7-7-7-7-7-7-5-5-5-5-5-5-5-5--|
|--5-5-5-5-5-5-5-5-2-2-2-2-2-2-2-2-|-9-9-9-9-9-9-9-9-7-7-7-7-7-7-7-7--|

Verse
Guitar 1
|----------------------------------|----------------------------------|
|----------------------------------|----------------------------------|
|----------------------------------|----------------------------------|
|--9-9-9-9-9-9-9-9-7-7-7-7-7-7-7-7-|-9-9-9-9-9-9-9-9-7-7-7-7-7-7-7-7--|
|--7-7-7-7-7-7-7-7-5-5-5-5-5-5-5-5-|-7-7-7-7-7-7-7-7-5-5-5-5-5-5-5-5--|
|----------------------------------|----------------------------------|
pm . . . . . . . . . . . . . . . .   . . . . . . . . . . . . . . . .

Guitar 2
|----------------------------------|----------------------------------|
|----------7--------------6--------|----------7-------6--7--6--4------|
|------8-----8~~-----8------8~~----|------8-----8---8-----------------|
|----8---8---------8---8-----------|----8---8-----8-------------------|
|----------------------------------|----------------------------------|
|----------------------------------|----------------------------------|

|----------------------------------|----------------------------------|
|----------------------------------|----------------------------------|
|----------------------------------|----------------------------------|
|--5-5-5-5-5-5-5-5-2-2-2-2-2-2-2-2-|--9-9-9-9-9-9-9-9-7-7-7-7-7-7-7-7-|
|--3-3-3-3-3-3-3-3-0-0-0-0-0-0-0-0-|--7-7-7-7-7-7-7-7-5-5-5-5-5-5-5-5-|
|----------------------------------|----------------------------------|
pm . . . . . . . . . . . . . . . .   . . . . . . . . . . . . . . . .

Guitar 2
|----6-----6-------4---------------|----------------------------------|
|------7-----7-------7-6--7-6------|----------7-------6-----6-----6---|
|--------8-----8-------------------|------8-----8---8---8-----8-------|
|----------------------------------|----8---8-----8-------8-----8-----|
|----------------------------------|----------------------------------|
|----------------------------------|----------------------------------|

Chorus
Guitar 1
|----------------------------------|---------------------------------|
|----------------------------------|---------------------------------|
|--5-5-5-5-5-5-5-5-4-4-4-4-4-4-4-4-|-9-9-9-9-7-7-7-7-5-5-5-5-5-5-5-5-|
|--3-3-3-3-3-3-3-3-2-2-2-2-2-2-2-2-|-7-7-7-7-5-5-5-5-3-3-3-3-3-3-3-3-|
|--5-5-5-5-5-5-5-5-4-4-4-4-4-4-4-4-|-9-9-9-9-7-7-7-7-5-5-5-5-5-5-5-5-|
|----------------------------------|---------------------------------|

                                                                         2x
Guitar 2
|------------------------------------|--------6-4-----6-----------------|
|------7---6-7-6-----7---6-7-6-------|------7-----7-6---7---7---6-7-6---|
|------------------------------------|----------------------------------|
|--8-8---8-------8-8---8-------------|--8-8---------------8---8---------|
|------------------------------------|----------------------------------|
|------------------------------------|----------------------------------|

Guitar 1
|------------------------------------|
|------------------------------------|
|--5-5-5-5-5-5-5-5-4-4-4-4-4-4-4-4---|
|--3-3-3-3-3-3-3-3-2-2-2-2-2-2-2-2---|
|--5-5-5-5-5-5-5-5-4-4-4-4-4-4-4-4---|
|------------------------------------|

Guitar 2
|------------------------------------|
|------7---6-7-6-----7---6-7-6-------|
|------------------------------------|
|--8-8---8-------8-8---8-------------|
|------------------------------------|
|------------------------------------|

Verse 2x

Chorus

Solo
|--12full-bend-----------------------------------------------12--------12b-
|---------------------------------------------------------12--------12-----
|--------------------12----------------12----14br-12--14b-------14b--------
|--------------12-14----14-12h14-12/14----14-------------------------------
|--------------------------------------------------------------------------
|--------------------------------------------------------------------------

|-12h13h15-12----12-15-15^17-17^15-12----12h15-15^17-15-17b17b17b17b17b17b~
|-------------15----------------------15-----------------------------------
|--------------------------------------------------------------------------
|--------------------------------------------------------------------------
|--------------------------------------------------------------------------
|--------------------------------------------------------------------------

|-17br-15-17-15-14\-14h15p14-15-14-12-12-------------------------12--------
|------------------------------------------------15-12----12-15b----15-12--
|-----------------------------------------14b-14-------14------------------
|--------------------------------------------------------------------------
|--------------------------------------------------------------------------
|--------------------------------------------------------------------------

|--------------------------------------------------------------------------|
|--------------------------------------------------------------------------|
|-14-----------------------------------------------------------------------|
|----------------12/14~~~~~~~~~~~~~~~~~~~~~~~~~~~~~~~~~~~~~~~~~~~~~~~~~~~~-|
|----14-14-17-14-----------------------------------------------------------|
|--------------------------------------------------------------------------|

Chorus 3x

Outro
|----------------------------------|----------------------------------|
|----------7--------------6--------|----------7-------6--7--6--4------|
|------8-----8~~-----8------8~~----|------8-----8---8-----------------|2x
|----8---8---------8---8-----------|----8---8-----8-------------------|
|----------------------------------|----------------------------------|


Important: The song above is NOT stored on the Chordie server. The original song is hosted at www.xguitar.com. Chordie works as a search engine and provides on-the-fly formatting. Chordie does not index songs against artists'/composers' will. To remove this song please click here.

This song is displayed as text-only. Transposing and tuning is only available for chordpro-songs.

Login - add to songbook

Rating click stars to rate

Layout
Accuracy

Jango Player

SHARE PAGE  




You need to log in to post comments