Guitar Tabs, Chords and Lyrics


Run Away   Staind



Staind- Run Away
Tuning- CGCFAD

Not traditional Staind tuning but this sounds pretty accurate.

Intro
Guitar 1
|------------------------------------|
|--------------------5-5-5-xx-5-5-5--|
|--5-5-5-5-xx-5-5-xx-----------------|2x
|--3-3-3-3-xx-3-3-xx-7-7-7-xx-7-7-7--|
|------------------------------------|
|------------------------------------|

Guitar 2
|-----------------------------------------------------------------------------------|
|-------------------------------------------13----13----13-------11----11----11/13--|
|-----------------------------------9/10-10----10----10----10-10----10----10--------|
|-----------------------------------------------------------------------------------|
|-----------------------------------------------------------------------------------|
|-----------------------------------------------------------------------------------|

Guitar 1
|----------------------------------------------------------------|
|----------------------------------------------------------------|
|----------------------------------------------------------------|
|----------------------------------------------------------------|
|--0----0---0--x--0----0---0--x--3----3---3--x--3----3---3-------|
|--0----0---0--x--0----0---0--x--3----3---3--x--3----3---3-------|

                                                                  3x
Guitar 2
|--------------------------------------------------------------------------|
|----------------------------------13----13----13-------11----11----11/13--|
|--------------------------9/10-10----10----10----10-10----10----10--------|
|--------------------------------------------------------------------------|
|--------------------------------------------------------------------------|
|--------------------------------------------------------------------------|

Guitar 1
|----------------------------------------------------------------|
|----------------------------------------------------------------|
|----------------------------------------------------------------|
|----------------------------------------------------------------|
|--0----0---0--x--0----0---0--x--0----0---0--x--0----0---0--x----|
|--0----0---0--x--0----0---0--x--0----0---0--x--0----0---0--x----|

Verse
Guitar 1
|------------------------------------|
|------------------5~~~~~~~~---------|
|--5~~~~~~~~-------------------------|3x
|--3~~~~~~~~-------7~~~~~~~~---------|
|------------3-3-3-----------3-3-3---|
|------------3-3-3-----------3-3-3---|
pm           . . .           . . .

|------------------------------------|
|------------------5~~~~~~~~~~~~~~~~~|
|--5~~~~~~~~-------------------------|
|--3~~~~~~~~-------7~~~~~~~~~~~~~~~~~|
|------------3-3-3-------------------|
|------------3-3-3-------------------|

Guitar 2
|--------------------------------------------------------------------------|
|----------------------------------13----13----13-------11----11----11/13--|
|--------------------------9/10-10----10----10----10-10----10----10--------|
|--------------------------------------------------------------------------|
|--------------------------------------------------------------------------|
|--------------------------------------------------------------------------|

Chorus
Guitar 1
|------------------------------------------------------------------|
|------------------------------------------------------------------|
|------------------------------------------------------------------|4x
|------------------------------------------------------------------|
|--0----0---0--x--0----0---0--x--3----3---3--x--3/5----5---5-------|
|--0----0---0--x--0----0---0--x--3----3---3--x--3/5----5---5-------|

Guitar 2- This is pretty faint so it may not be 100% correct
|--------------------------------15---------------14---------------|
|----------------------------------------------------------15------|
|-------------------14---------------------------------------------|4x
|-------------12-----------15--------------------------------------|
|------------------------------------------------------------------|
|------------------------------------------------------------------|

End Chorus On
Guitar 1
|-----------------|
|-----------------|
|-----------------|
|-----------------|
|--0~~~~~~~~~~~~~~|
|--0~~~~~~~~~~~~~~|

Verse
Chorus

Bridge
|--13~~~----13----13~~~~---------------------------13/15-13----13~~--
|--15~~~-15----15--------13-15-13-15~~13-15-13-15~~---------15-15~~--
|--14~~~-------------------------------------------------------14~~--
|--------------------------------------------------------------------
|--------------------------------------------------------------------
|--------------------------------------------------------------------

|--13/15-13----13~~------15-----------15-----13-13----13----13----13-
|-----------15-15~~13-15----15~~13-15----15--15----15----15----15----
|--------------14~~--------------------------14----------------------
|--------------------------------------------------------------------
|--------------------------------------------------------------------
|--------------------------------------------------------------------

|-----------------------------13/15-13----13~~13/15-13----13~~------15-----
|-----15----15~~----15----15~~---------15-15~~---------15-15~~13-15----15~~
|--14----14------14----14-----------------14~~------------14~~-------------
|--------------------------------------------------------------------------
|--------------------------------------------------------------------------
|--------------------------------------------------------------------------

|--------15------13~~~~~~~~~~~~~~~--------13----13----13-------11----11----11/13--|
|--13-15----15~~-15~~~~~~~~~~~~~~~9/10-10----10----10----10-10----10----10--------|
|----------------14~~~~~~~~~~~~~~~------------------------------------------------|
|---------------------------------------------------------------------------------|
|---------------------------------------------------------------------------------|
|---------------------------------------------------------------------------------|

Guitar 1
|----------------------------------------------------------------|
|----------------------------------------------------------------|
|----------------------------------------------------------------|
|----------------------------------------------------------------|
|--0----0---0--x--0----0---0--x--3----3---3--x--3----3---3-------|
|--0----0---0--x--0----0---0--x--3----3---3--x--3----3---3-------|

Guitar 2
|--------------------------------------------------------------------------|
|----------------------------------13----13----13-------11----11----11/13--|
|--------------------------9/10-10----10----10----10-10----10----10--------|
|--------------------------------------------------------------------------|
|--------------------------------------------------------------------------|
|--------------------------------------------------------------------------|

Chorus 8x

Outro
Guitar 1
|----------------------------------------------------------------
|----------------------------------------------------------------
|----------------------------------------------------------------
|----------------------------------------------------------------
|--0----0---0--x--0----0---0--x--0----0---0--x--0----0---0--x----
|--0----0---0--x--0----0---0--x--0----0---0--x--0----0---0--x----

|--------------------------------------------|
|--------------------------------------------|
|--------------------------------------------|
|--------------------------------------------|
|--0----0---0--x--0----0---0--x--0----0---0--|


Important: The song above is NOT stored on the Chordie server. The original song is hosted at www.xguitar.com. Chordie works as a search engine and provides on-the-fly formatting. Chordie does not index songs against artists'/composers' will. To remove this song please click here.

This song is displayed as text-only. Transposing and tuning is only available for chordpro-songs.

Login - add to songbook

Rating click stars to rate

Layout
Accuracy

SHARE PAGE  




You need to log in to post comments