Guitar Tabs, Chords and Lyrics


Crawl   Staind



				*   STAIND   *
			   
		          '99 RELEASE "DYSFUNCTION"
			    
				    "CRAWL"
	______________________________________________________________________________			    

                    All songs TUNED IN "DROPPED D" THEN HALF STEP DOWN - C# 

	Tabbed by "The Witch/Wookie Boy"       email: staind99@geocities.com
	
	***Copywritten and all tabbing rights reserved to me, or something***  
	
	~Distinct tone derived from highly overdriven (not high solid state type gain)
	Marshall amp, pushing alot of low-end through the cabinet to acheive warm 
	organic tone - he uses some chords that have fifths added and other minors,
	i can't quite hear all the nuances but this should be enough to get you by... 
	______________________________________________________________________________
              
       
		~intro

	harmonics sounding on 17th fret
	of B & G strings after bend.	

E-------------------------------------------------I
B---------------------------------------0(17)H-----I
G-----------------19-(bend-whole step)^-0(17)H-----I REPEAT
D--0--|---------------------------------0(17)H-----I
A--0--|-------------------------------------------I			 	
D--0--|-------------------------------------------I		
            *VERSE:

		
E------------------------------------------------I
B------------------------------------------------I
G------------------------------------------------I  
D--~please tell me u do't need this transcribed~-I
A------------------------------------------------I
D------------------------------------------------I
        
	*CHORUS:
		gtr 1 (on rhythm pickup)
E--------------------------------------------------------------------------------I
B--------------------------------------------------------------------------------I
G---------------14-----------------------14----------------14----------------14--I REPEAT
D--16-14-12-14-----12----16-14-12-14----------12------12-------12--------12------I
A-------------------------------------------------14^---------------14^----------I
D--------------------------------------------------------------------------------I  
|		gtr 2
E----------------------------------I
B----------------------------------I
G----------------------------------I 
D--0-------------------------------I
A--0-------------------------------I
D--0-------------------------------I  

	
		BRIDGE:
			BASS FIRST (HARMONICS = *)
G----------------------------------------------I
D----------------------------------------------I
A---------------------------------*5-*5-*5-*5--I
D--0-0-0-0---*5-*5-*5-*5--0-0-0-0--------------I

	  

E------------------------------------I
B------------------------------------I
G------------------------------------I 
D------------------------------------I
A------------------------------------I
D---0-0-0-0-3-2-0-0-0-0-0-0-6-5-0-0--I
E------------------------------------I
B------------------------------------I
G------------------------------------I 
D---0-0-0-0-3-2-0-0-0-3-0-0-6-5-0-0--I
A---0-0-0-0-3-2-0-0-0-3-0-0-6-5-0-0--I
D---0-0-0-0-3-2-0-0-0-3-0-0-6-5-0-0--I
     *repeat chorus						CRAWL____~FINE

http://listen.to/further



Important: The song above is NOT stored on the Chordie server. The original song is hosted at www.xguitar.com. Chordie works as a search engine and provides on-the-fly formatting. Chordie does not index songs against artists'/composers' will. To remove this song please click here.

This song is displayed as text-only. Transposing and tuning is only available for chordpro-songs.

Login - add to songbook

Rating click stars to rate

Layout
Accuracy

Jango Player

SHARE PAGE  




You need to log in to post comments