Chordie logo


Me   Staind



				*   STAIND   *
			   
		          '99 RELEASE "DYSFUNCTION"
			    
				      "ME"
	______________________________________________________________________________			    

                    All songs TUNED IN "DROPPED D" THEN HALF STEP DOWN - C# 

	Tabbed by "The Witch/Wookie Boy"       email: staind99@geocities.com
	
	~Distinct tone derived from highly overdriven (not high solid state type gain)
	Marshall amp, pushing alot of low-end through the cabinet to acheive warm 
	organic tone - he uses some chords that have fifths added and other minors,
	i can't quite hear all the nuances but this should be enough to get you by... 
	______________________________________________________________________________
              
       
		~INTRO (gtr 1)
E---------------------------------I
B---------------------------------I
G---------------------------------I REPEAT
D------4-----4--------4--4^3------I
A---------------------------------I			 	
D--3-3---3-3---3-3--3-------------I		
|
|		~INTRO (gtr 2)
|  
|
E---------------------------------I
B---------------------------------I
G------3--------------------------I  repeat
D---3-----------------------------I
A---------------------------------I
D---------------------------------I
[BEFORE VERSE STARTS - REST ON THIS CHORD]
 
D--10------------------------------I
A---8------------------------------I
D---8------------------------------I


            *VERSE:
		
	gtr 1

E-----------|
B----6------|
G------5----|------3--|
D--------3--|---3-----|
A-----------|---------|
D-----------|
|        
|	gtr. 2
|
E---------------------------------I
B---------------------------------I
G---------------------------------I REPEAT
D------4-----4--------4--4^3------I
A---------------------------------I			 	
D--3-3---3-3---3-3--3-------------I		
        
	*CHORUS:
E---------------------------------------I
B--/6-----------------------------------I
G-----5-------5--3----------------------I REPEAT
D-------3-----3--1----7----------2-0----I
A-------------3--1----5----------0-0----I
D----------------1----5----------0-0----I  

	
		BRIDGE:
E--------------------------------------------I
B------------------------------------12------I
G-----i need to go over this part--------12--I
D--------------------------------------------I
A--------------------------------------------I
D--------------------------------------------I

	    *OUTRO:

E---------------------------------I
B---------------------------------I
G---------------------------------I REPEAT
D------4-----4--------4--4^3------I
A---------------------------------I			 	
D--3-3---3-3---3-3--3-------------I	
								"ME"____~FINE



Important: The song above is NOT stored on the Chordie server. The original song is hosted at www.xguitar.com. Chordie works as a search engine and provides on-the-fly formatting. Chordie does not index songs against artists/composers will. To remove this song please click here.

This song is displayed as text-only. Transposing and tuning is only available for chordpro-songs.

Login - add to songbook

Rating click stars to rate

Layout
Accuracy

Jango Player

SHARE PAGE  




You need to log in to post comments