Guitar Tabs, Chords and Lyrics


Raw   Staind



				*   STAIND   *
			   
		          '99 RELEASE "DYSFUNCTION"
			    
				     "RAW"
	______________________________________________________________________________			    

                    All songs TUNED IN "DROPPED D" THEN HALF STEP DOWN - C# 

	Tabbed by "The Witch/Wookie Boy"       email: staind99@geocities.com
	***Copywritten and all tabbing rights reserved to me, or something*** 
	
	~Distinct tone derived from highly overdriven (not high solid state type gain)
	Marshall amp, pushing alot of low-end through the cabinet to acheive warm 
	organic tone - he uses some chords that have fifths added and other minors,
	i can't quite hear all the nuances but this should be enough to get you by...
	______________________________________________________________________________
              
       
		INTRO

    ~p.m.     *     * * *    
E------------------------------------I
B------------------------------5^6---I
G--------------------------4^5-------I
D-----0-0-----0-----0-0-0------------I
A-0^1-0-0-0^1-0-0^1-0-0-0------------I
D-0^1-0-0-0^1-0-0^1-0-0-0------------I

		*VERSE:
		
		
E--------------------------------------------------I
B--------------------------------------------------I
G------------------------------0----0-------0----0-I  REPEAT
D-----7---7-------7----7---------------------------I
A--------------------------------------------------I
D---4---4---4---5----5---5---1----1---1---1---1----I
        

		*CHORUS:

		GTR 1
E--------------------------------------I
B--9-----------------------------------I
G--11-(bend to sound ONE step higher)--I REPEAT
D--------------------------------------I
A--------------------------------------I
D--------------------------------------I  
|
|		GTR 2
E----------------------------------I
B----------------------------------I
G----------------------------------I REPEAT
D--5----6------------|--------3----I
A--3----4------------|--end:--1----I
D--3----3------------|--------1----I  


	
		BRIDGE:
I'm guessing he throws the lowest sting down a step with a whammy pedal here.
it sounds on the same key as the open 5th string...if you don't have a whammy,
or a seven string (which mike doesn't use) play as is tabbed here, up an octave
from the recording..
E---------------------------------------------------------------------------I
B---------------------------------------------------------------------------I
G---------------------------------------------------------------------------I REPEAT
D---------------------------------------------------------------------------I
A---------------------------------------------------------------------------I
D--7-7-7-7-8-8-8-8-7-7-7-7-8-8-8-8-7-7-7-7-8-8-8-8-12-11-12-11-12-11--------I

	
E---------------------------------------------------------------------------I
B---------------------------------------------------------------------------I
G---------------------------------------------------------------------------I REPEAT
D---------------------------------------------------------------------------I
A------------------------------------------12-\-11-12-\-11-12-\-11----------I
D--7-7-8-7-8-7-7-8-7-8-7-7-8-7-8-7-7-8-7-8-12-\-11-12-\-11-12-\-11----------I

    REPEAT CHORUS AND INTRO.....

		
http://listen.to/further 	 
http://welcome.to/staind							RAW____~FINE



Important: The song above is NOT stored on the Chordie server. The original song is hosted at www.xguitar.com. Chordie works as a search engine and provides on-the-fly formatting. Chordie does not index songs against artists'/composers' will. To remove this song please click here.

This song is displayed as text-only. Transposing and tuning is only available for chordpro-songs.

Login - add to songbook

Rating click stars to rate

Layout
Accuracy

Jango Player

SHARE PAGE  




You need to log in to post comments