Guitar Tabs, Chords and Lyrics


Spleen   Staind



				*   STAIND   *
			   
		          '99 RELEASE "DYSFUNCTION"
			    
				   "SPLEEN"
	______________________________________________________________________________			    

                    All songs TUNED IN "DROPPED D" THEN HALF STEP DOWN - C# 

	Tabbed by "The Witch/Wookie Boy"       email: staind99@geocities.com
	
	***Copywritten and all tabbing rights reserved to me, or something***  
	
	~Distinct tone derived from highly overdriven (not high solid state type gain)
	Marshall amp, pushing alot of low-end through the cabinet to acheive warm 
	organic tone - he uses some chords that have fifths added and other minors,
	i can't quite hear all the nuances but this should be enough to get you by... 
	______________________________________________________________________________
              
    *INTRO     

	i'm guessing at this part
	i''ll take some time to get it exact soon.

E---------------------------------I
B---------------------------------I
G--8------------------------------I  
D--7------4-6-6-------------------I	repeat
A--5---0--4-5-5-------------------I
D--0---0--4-5-5-------------------I


*VERSE:
		
PALM MUTE AT FIRST,
RANDOM PINCH HARMONICS SOUNDING AS BUILDS

		Triplets

 "i feel..."
E---------------------------------I
B---------------------------------I
G---------------------------------I  
D---------------------------------I
A--6-5-6-5-3-5--------------------I
D---------------------------------I
        
	*Pre-CHORUS:

  "Can't Breathe..."
E----------------------------------I
B----------------------------------I
G----------------------------------I REPEAT
D-13--12--13--12--10--12-----------I
A-13--12--13--12--10--12-----------I
D-13--12--13--12--10--12-----------I  

	
	        
	*CHORUS:

E----------------------------------I
B----------------------------------I
G----------------------------------I REPEAT 4x
D----------------------------------I
A----------------------------------I
D----------------------------------I  


http://listen.to/further						SPLEEN____~FINE



Important: The song above is NOT stored on the Chordie server. The original song is hosted at www.xguitar.com. Chordie works as a search engine and provides on-the-fly formatting. Chordie does not index songs against artists'/composers' will. To remove this song please click here.

This song is displayed as text-only. Transposing and tuning is only available for chordpro-songs.

Login - add to songbook

Rating click stars to rate

Layout
Accuracy

Jango Player

SHARE PAGE  




You need to log in to post comments