Guitar Tabs, Chords and Lyrics


Anything But This   Static X



Static-x - Anything But This
Submitted By: DAN O MITE
EMail: cottontop0302@aol.com

Tuning: Drop D (D A D G B E)

This song is thrashing in your face metal. Not really all that hard to play
though. Well here it is Have Fun!

^-let ring
.-palm mute



verse 1
E|--------------------------------------------------------||
B|--------------------------------------------------------||
G|--------------------------------------------------------||
D|--------------------------------------------------------||
A|--------------------------------------------------------||
D|-11111222222333-----------------------------------------||
   ..............

chorus
E|--------------------------------------------------------||
B|--------------------------------------------------------||
G|--------------------------------------------------------||
D|-1-0-1-0-1-2--------------------------------------------||
A|-1-0-1-0-1-2--------------------------------------------||
D|-1-0-1-0-1-2^^^^^---------------------------------------||

verse 2
E|--------------------------------------------------------||
B|--------------------------------------------------------||
G|--------------------------------------------------------||
D|--------------------------------------------------------||
A|--------------------------------------------------------||
D|-000001111111222-------------------------------------------------------||
   ...............

That creepy sounding solo
E|--------------------------------------------------------||
B|-12^^-12-13^^-13-9^^-9-10-------------------------------------------------||
G|--------------------------------------------------------||
D|--------------------------------------------------------||
A|--------------------------------------------------------||


Important: The song above is NOT stored on the Chordie server. The original song is hosted at www.xguitar.com. Chordie works as a search engine and provides on-the-fly formatting. Chordie does not index songs against artists'/composers' will. To remove this song please click here.

This song is displayed as text-only. Transposing and tuning is only available for chordpro-songs.

Login - add to songbook

Rating click stars to rate

Layout
Accuracy

SHARE PAGE  




You need to log in to post comments