Guitar Tabs, Chords and Lyrics


Deliver Me   Static X



static-x
"Deliver Me"

standard tuning: E, A, D, G, B, E



main riff/chorus

E|-------------------------------------------|
B|-------------------------------------------|
G|--3/6-6--3-3-3/6-6-3---3/6-6--3-3-3/6-6-5--|
D|--3/6-6--3-3-3/6-6-3---3/6-6--3-3-3/6-6-5--|
A|--1/4-4--1-1-1/4-4-1---1/4-4--1-1-1/4-4-3--|
E|-------------------------------------------|


verse

E|-------------------------------------------|
B|-------------------------------------------|
G|--3-3--3-3--3-3--6-6-5---------------------|
D|--3-3--3-3--3-3--6-6-5---------------------|
A|--1-1--1-1--1-1--4-4-3---------------------|
E|-------------------------------------------|
    . .  . .  . .  . . .

pre-chorus

E|-------------------------------------------|
B|-------------------------------------------|
G|--3-3--3-3--3-3--6-6-5---------------------|
D|--3-3--3-3--3-3--6-6-5---------------------|
A|--1-1--1-1--1-1--4-4-3---------------------|
E|-------------------------------------------|

there is one part like this

E|-------------------------------------------|
B|-------------------------------------------|
G|--3-3--3-3--3-3--3-3--3-3------------------|
D|--3-3--3-3--3-3--3-3--3-3------------------|
A|--1-1--1-1--1-1--1-1--1-1------------------|
E|-------------------------------------------|
    . .  . .  . .  . .  . .

the next two choruses have 2 guitars:

guitar one:

E|-------------------------------------------|
B|-------------------------------------------|
G|--3/6-6--3-3-3/6-6-3---3/6-6--3-3-3/6-6-5--|
D|--3/6-6--3-3-3/6-6-3---3/6-6--3-3-3/6-6-5--|
A|--1/4-4--1-1-1/4-4-1---1/4-4--1-1-1/4-4-3--|
E|-------------------------------------------|

guitar two:

play each one several times with up and down strokes

E|-----|-----|-----|-----|-----|-----|
B|-----|-----|-----|-----|-----|-----|
G|--3--|--6--|--5--|--3--|--6--|--8--|
D|--x--|--x--|--x--|--x--|--x--|--x--|
A|--1--|--4--|--3--|--1--|--4--|--6--|
E|-----|-----|-----|-----|-----|-----|

play that two times and end the first of the two times through the chorus with this a whole bunch of times:

E|-----|
B|-----|
G|--8--|
D|--x--|
A|--6--|
E|-----|

the song ends with:

E|-------------------------------------------|
B|-------------------------------------------|
G|--3/6-6--3-3-3/6-6-3---3/6-6--3-3-3/6-6-5--|
D|--3/6-6--3-3-3/6-6-3---3/6-6--3-3-3/6-6-5--|
A|--1/4-4--1-1-1/4-4-1---1/4-4--1-1-1/4-4-3--|
E|-------------------------------------------|



Important: The song above is NOT stored on the Chordie server. The original song is hosted at www.xguitar.com. Chordie works as a search engine and provides on-the-fly formatting. Chordie does not index songs against artists'/composers' will. To remove this song please click here.

This song is displayed as text-only. Transposing and tuning is only available for chordpro-songs.

Login - add to songbook

Rating click stars to rate

Layout
Accuracy

SHARE PAGE  




You need to log in to post comments