Chordie logo


Cold   Static X



-------------------------------------------------------------------------------
		         Cold – Static-X
-------------------------------------------------------------------------------

By: Pas (dildosuptheass@hotmail.com)

^ = Bend
/ = Slide down

Tuning: Drop D down 1 step (C G C F A D)

Intro:                8x|
|-----------------------|
|-----------------------|
|-----------------------|
|--0--0-0--0--0-0--0-0--|
|--0--0-0--0--0-0--0-0--|
|--0--0-0--0--0-0--0-0--|

Verse:                8x|
|-----------------------|
|-----------------------|
|-----------------------|
|--0--0-0--0--0-0--0-0--|
|--0--0-0--0--0-0--0-0--|
|--0--0-0--0--0-0--0-0--|

Chorus:                                           2x|
|---------------------------------------------------|(Guitar 1)
|---------------------------------------------------|
|--7--10/7--13--12--5-------7--10/7--13--12--12-----|
|--x--x--x--x---x---x-------x--x--x--x---x---x------|
|--5--8-/5--11--10--3-------5--8-/5--11--10--10-----|
|---------------------------------------------------|
|                                                 2x|
|---------------------------------------------------|(Guitar 2)
|---------------------------------------------------|
|---------------------------------------------------|(Sounds good to me,
|-----3-----6---5--------------3-----6---5----------| bend the notes just a little
|--0--x-----x---x---7^///---0--x-----x---x---7^///--| and it should be cool)
|--0--3--0--6---5---7^///---0--3--0--6---5---7^///--|

Verse:                8x|
|-----------------------|
|-----------------------|
|-----------------------|
|--0--0-0--0--0-0--0-0--|
|--0--0-0--0--0-0--0-0--|
|--0--0-0--0--0-0--0-0--|

Chorus:                                           2x|
|---------------------------------------------------|(Guitar 1)
|---------------------------------------------------|
|--7--10/7--13--12--5-------7--10/7--13--12--12-----|
|--x--x--x--x---x---x-------x--x--x--x---x---x------|
|--5--8-/5--11--10--3-------5--8-/5--11--10--10-----|
|---------------------------------------------------|
|                                                 2x|
|---------------------------------------------------|(Guitar 2)
|---------------------------------------------------|
|---------------------------------------------------|
|-----3-----6---5--------------3-----6---5----------|
|--0--x-----x---x---7^///---0--x-----x---x---7^///--|
|--0--3--0--6---5---7^///---0--3--0--6---5---7^///--|

Bridge:               4x|
|-----------------------|
|-----------------------|
|-----------------------|
|--0--0-0--0--0-0--0-0--|
|--0--0-0--0--0-0--0-0--|
|--0--0-0--0--0-0--0-0--|

Breakdown:(Starts with electronics)               2x|
|---------------------------------------------------|(Guitar 1)
|---------------------------------------------------|
|--7--10/7--13--12--5-------7--10/7--13--12--12-----|
|--x--x--x--x---x---x-------x--x--x--x---x---x------|
|--5--8-/5--11--10--3-------5--8-/5--11--10--10-----|
|---------------------------------------------------|
|                                                 2x|
|---------------------------------------------------|(Guitar 2)
|---------------------------------------------------|
|---------------------------------------------------|
|-----3-----6---5--------------3-----6---5----------|
|--0--x-----x---x---7^///---0--x-----x---x---7^///--|
|--0--3--0--6---5---7^///---0--3--0--6---5---7^///--|

Chorus:                                           2x|
|---------------------------------------------------|(Guitar 1)
|---------------------------------------------------|
|--7--10/7--13--12--5-------7--10/7--13--12--12-----|
|--x--x--x--x---x---x-------x--x--x--x---x---x------|
|--5--8-/5--11--10--3-------5--8-/5--11--10--10-----|
|---------------------------------------------------|
|                                                 2x|
|---------------------------------------------------|(Guitar 2)
|---------------------------------------------------|
|---------------------------------------------------|
|-----3-----6---5--------------3-----6---5----------|
|--0--x-----x---x---7^///---0--x-----x---x---7^///--|
|--0--3--0--6---5---7^///---0--3--0--6---5---7^///--|

Outro:                4x|
|-----------------------|
|-----------------------|
|-----------------------|
|--0--0-0--0--0-0--0-0--|
|--0--0-0--0--0-0--0-0--|
|--0--0-0--0--0-0--0-0--|



Important: The song above is NOT stored on the Chordie server. The original song is hosted at www.xguitar.com. Chordie works as a search engine and provides on-the-fly formatting. Chordie does not index songs against artists/composers will. To remove this song please click here.

This song is displayed as text-only. Transposing and tuning is only available for chordpro-songs.

Login - add to songbook

Rating click stars to rate

Layout
Accuracy

SHARE PAGE  




You need to log in to post comments