Guitar Tabs, Chords and Lyrics


Get to the Gone   Static X



-------------------------------------------------------------------------------
		Get To The Gone – Static-X
-------------------------------------------------------------------------------

By: Pas (dildosuptheass@hotmail.com)

. = Palm mute
^ = Bend
r = Release bend

Tuning: Drop D down 1 step (C G C F A D)

Intro:                        2x|
|-------------------------------|
|-------------------------------|
|-------------------------------|
|--0--3--2--0----0--3--2--1--0--|(Play these really fast, listen to
|--0--3--2--0----0--3--2--1--0--| the song for the exact strumming)
|--0--3--2--0----0--3--2--1--0--|
   .  .  .  .    .  .  .  .  .

Chorus:                      4x|
|------------------------------|
|------------------------------|
|------------------------------|
|--7-0-6-0--0-6-0--0-6-0--0-6--|
|--7-0-6-0--0-6-0--0-6-0--0-6--|
|--7-0-6-0--0-6-0--0-6-0--0-6--|

Verse:      4x|
|-------------|
|-------------|
|-------------|
|--7-0-6-0-0--|
|--7-0-6-0-0--|
|--7-0-6-0-0--|

Bridge:                      4x|
|------------------------------|
|------------------------------|
|------------------------------|
|--7-0-6-0--0-6-0--0-6-0--0-6--|
|--7-0-6-0--0-6-0--0-6-0--0-6--|
|--7-0-6-0--0-6-0--0-6-0--0-6--|

Verse:      4x|
|-------------|
|-------------|
|-------------|
|--7-0-6-0-0--|
|--7-0-6-0-0--|
|--7-0-6-0-0--|

Bridge:                       2x|
|-------------------------------|
|-------------------------------|
|-------------------------------|
|--0--3--2--0----0--3--2--1--0--|
|--0--3--2--0----0--3--2--1--0--|
|--0--3--2--0----0--3--2--1--0--|
   .  .  .  .    .  .  .  .  .

Chorus:                      4x|
|------------------------------|
|------------------------------|
|------------------------------|
|--7-0-6-0--0-6-0--0-6-0--0-6--|
|--7-0-6-0--0-6-0--0-6-0--0-6--|
|--7-0-6-0--0-6-0--0-6-0--0-6--|

Verse:      4x|
|-------------|
|-------------|
|-------------|
|--7-0-6-0-0--|
|--7-0-6-0-0--|
|--7-0-6-0-0--|

Bridge:                       2x|
|-------------------------------|
|-------------------------------|
|-------------------------------|
|--0--3--2--0----0--3--2--1--0--|
|--0--3--2--0----0--3--2--1--0--|
|--0--3--2--0----0--3--2--1--0--|
   .  .  .  .    .  .  .  .  .

Breakdown:
|---------------------------------------------------------------------|
|---------------------------------------------------------------------|
|---------------------------------------------------------------------|
|--3-3-3-3-3-3-3-3-3-3-3-3-3-3-3-3-3-3-3-3-3-3-3-3-3-3-3-3-3-4-4-4-4--|
|--3-3-3-3-3-3-3-3-3-3-3-3-3-3-3-3-3-3-3-3-3-3-3-3-3-3-3-3-3-4-4-4-4--|
|--3-3-3-3-3-3-3-3-3-3-3-3-3-3-3-3-3-3-3-3-3-3-3-3-3-3-3-3-3-4-4-4-4--|

Bridge:                      2x|
|------------------------------|
|------------------------------|
|------------------------------|
|--7-0-6-0--0-6-0--0-6-0--0-6--|
|--7-0-6-0--0-6-0--0-6-0--0-6--|
|--7-0-6-0--0-6-0--0-6-0--0-6--|

Breakdown:
|---------------------------------------------------------------------|
|---------------------------------------------------------------------|
|---------------------------------------------------------------------|
|--3-3-3-3-3-3-3-3-3-3-3-3-3-3-3-3-3-3-3-3-3-3-3-3-3-2-2-2-1-1-1-0-0--|
|--3-3-3-3-3-3-3-3-3-3-3-3-3-3-3-3-3-3-3-3-3-3-3-3-3-2-2-2-1-1-1-0-0--|
|--3-3-3-3-3-3-3-3-3-3-3-3-3-3-3-3-3-3-3-3-3-3-3-3-3-2-2-2-1-1-1-0-0--|

Bridge:                      2x|
|------------------------------|
|------------------------------|
|------------------------------|
|--7-0-6-0--0-6-0--0-6-0--0-6--|
|--7-0-6-0--0-6-0--0-6-0--0-6--|
|--7-0-6-0--0-6-0--0-6-0--0-6--|

Breakdown: electronic sounds

Chorus:                      4x|
|------------------------------|
|------------------------------|
|------------------------------|
|--7-0-6-0--0-6-0--0-6-0--0-6--|
|--7-0-6-0--0-6-0--0-6-0--0-6--|
|--7-0-6-0--0-6-0--0-6-0--0-6--|

Outro:                       4x|
|------------------------------|(Guitar 1)
|------------------------------|
|------------------------------|
|--7-0-6-0--0-6-0--0-6-0--0-6--|
|--7-0-6-0--0-6-0--0-6-0--0-6--|
|--7-0-6-0--0-6-0--0-6-0--0-6--|
|                            4x|
|--15^^^^^^^^^^^^^^^^^^^^^r15--|(Guitar 2)
|--19^^^^^^^^^^^^^^^^^^^^^r19--|
|------------------------------|(This part may be electronics,
|------------------------------| but I tried it out for guitar,
|------------------------------| tremolo picking is used for them)
|------------------------------|



Important: The song above is NOT stored on the Chordie server. The original song is hosted at www.xguitar.com. Chordie works as a search engine and provides on-the-fly formatting. Chordie does not index songs against artists'/composers' will. To remove this song please click here.

This song is displayed as text-only. Transposing and tuning is only available for chordpro-songs.

Login - add to songbook

Rating click stars to rate

Layout
Accuracy

SHARE PAGE  




You need to log in to post comments