Guitar Tabs, Chords and Lyrics


Structural Defect   Static X



--------------------------------------------------------------------
Band : Static-X
Song : Structural Defect
Tuning : I used to use a standard tuning so if theres
             any problems please tell me.
--------------------------------------------------------------------
There is two guitars in this song.  And I didn't wrote the number
of time each riff should be played, because it's very hard in that song.

Riff 1
Guitar 1
|-----------------------------|
|-----------------------------|
|-----------------------------|
|-----------------------------|
|-----------------------------|
|-(0)---0000000--0000--|Palm Mute
   ^only the fist time

Riff 2 (0:08)
Guitar 1
|-----------------------|
|-----------------------|
|-----------------------|
|-----------------------|
|-----------------------|
|-0000000--0000--|Palm Mute
Guitar 2
|-----------------------|
|-----------------------|
|-----------------------|
|-----------------------|
|-----------------------|
|-0000000--0000--|Palm Mute

Riff 3 (0:31)
Guitar 1
|-----------------------|
|-----------------------|
|-----------------------|
|-----------------------|
|-----------------------|
|-0000000--0000--|Palm Mute

Riff 4 (Chorus 1) (0:33)
Guitar 1
|----------------------------|
|----------------------------|
|----------------------------|
|-0h6--0h6--0h6--0h6--|
|-0h6--0h6--0h6--0h6--|
|-0h6--0h6--0h6--0h6--|
Guitar 2
|----------------------------|
|----------------------------|
|----------------------------|
|---0h6--0h6--6-6h0----|
|---0h6--0h6--6-6h0----|
|---0h6--0h6--6-6h0----|

Verse 1 (Riff 2) (0:50)
Guitar 1
|-----------------------|
|-----------------------|
|-----------------------|
|-----------------------|
|-----------------------|
|-0000000--0000--|Palm Mute
Guitar 2
|-----------------------|
|-----------------------|
|-----------------------|
|-----------------------|
|-----------------------|
|-0000000--0000--|Palm Mute

Chorus 2 (1:06)
Both guitars
|----------------------------|
|----------------------------|
|----------------------------|
|-0h6--0h6--0h6--0h6--|
|-0h6--0h6--0h6--0h6--|
|-0h6--0h6--0h6--0h6--|

Verse 2 (Riff 2) (1:23)
Guitar 1
|-----------------------|
|-----------------------|
|-----------------------|
|-----------------------|
|-----------------------|
|-0000000--0000--|Palm Mute
Guitar 2
|-----------------------|
|-----------------------|
|-----------------------|
|-----------------------|
|-----------------------|
|-0000000--0000--|Palm Mute

Chorus 2 (1:40)
Both guitars
|----------------------------|
|----------------------------|
|----------------------------|
|-0h6--0h6--0h6--0h6--|
|-0h6--0h6--0h6--0h6--|
|-0h6--0h6--0h6--0h6--|

Interlude (1:57)
Guitar 1
|-----------------------|
|-----------------------|
|-----------------------|
|-----------------------|
|-----------------------|
|-0000000--0000--|Palm Mute
Guitar 2
|-----------------------|
|-----------------------|
|-----------------------|
|-----------------------|
|-----------------------|
|-0000000--0000--|Palm Mute

Chorus 2 (2:30)
Both guitars
|----------------------------|
|----------------------------|
|----------------------------|
|-0h6--0h6--0h6--0h6--|
|-0h6--0h6--0h6--0h6--|
|-0h6--0h6--0h6--0h6--|

Bridge (2:47)
Both guitars
|----------------------------|
|----------------------------|
|----------------------------|
|--2~~~~------------------|
|--2~~~~---Let ring------|
|--2~~~~------------------|

Chorus 1 (3:04)
Guitar 1
|----------------------------|
|----------------------------|
|----------------------------|
|-0h6--0h6--0h6--0h6--|
|-0h6--0h6--0h6--0h6--|
|-0h6--0h6--0h6--0h6--|
Guitar 2
|----------------------------|
|----------------------------|
|----------------------------|
|-(0h6)--0h6--6-6h0----|
|-(0h6)--0h6--6-6h0----|


Important: The song above is NOT stored on the Chordie server. The original song is hosted at www.xguitar.com. Chordie works as a search engine and provides on-the-fly formatting. Chordie does not index songs against artists'/composers' will. To remove this song please click here.

This song is displayed as text-only. Transposing and tuning is only available for chordpro-songs.

Login - add to songbook

Rating click stars to rate

Layout
Accuracy

SHARE PAGE  




You need to log in to post comments