Guitar Tabs, Chords and Lyrics


This Is Not   Static X



static-x "This Is Not" from "MACHINE" by: ChAAPY

 i noticed this site has no static-x tabs hardly??? well i decided to do tab the new
static-x song "This Is Not" cuz its the most EZiest song out there!!!!!! now i know
their is alot of synthisising n this song and keybords u could probally play on gtr.
but i myself am just a guitar player not a keyboardist so u wanna play the keyboards
tab it out urself and play it.

TUNING: C,G,C,F,A,D
KEY: p=pull-off   P.M.=palm mute   \\=slide down   %=rest

 main riff                  3x
 C|---------------------------|      |-----------------------|----------------------|
 G|---------------------------| then |--------------------6--|----------------------|
 C|-6p0----0--6p0----0--6p0---|      |-6p0----0--6p0---0--6--|-0----0--6p0--0--6p0--|

                            2x
 C|---------------------------|      |------------------------|
 G|---------------------------| then |---------------------6--|
 C|-6p0----0--6p0----0--6p0---|      |-6p0----0--6p0----0--6--|

 verse                     3x
 C|--------------------------|      |-------------------------|
 G|---------------------%----| then |--------------------6----|
 C|-3p0----0--3p0----0-------|      |-3p0----0--3p----0--6----|

                           3x                             P.M...
 C|--------------------------|      |---------------------------|
 G|---------------------%----| then |---------------------------|
 C|-3p0----0--3p0----0-------|      |-3p0----0--3p0----0--0--0--|

                        P.M...
 C|---------------------------|         |--------------------------|
 G|---------------------------| 3x then |---------------------6----|
 C|-3p0----0--3p0----0--0--0--|         |-3p0----0--3p0----0--6----|

                           3x                             P.M...
 C|--------------------------|      |---------------------------|
 G|---------------------%----| then |---------------------0--0--|
 C|-3p0----0--3p0----0-------|      |-3p0----0--3p0----0--0--0--|

 chorus
           4x               (downstrokes...) 4x
 C|----------|      |-------------------------|
 G|-7--6--%--| then |-7--6--X--X--X--X--X--X--|
 C|-7--6-----|      |-7--6--X--X--X--X--X--X--|

 after chorus 1rst time only 3x
 C|---------------------------|      |-------------------------|
 G|---------------------------| then |---------------------6---|
 C|-6p0----0--6p0----0--6p0---|      |-6p0----0--6p0----0--6---|

 interlude
 C|--------------------------|--------------------------|
 G|---------------------6----|---------------------6----|
 C|-3p0----0--3p0----0--6----|-3p0----0--3p0----0--6----|

                                                   P.M...
 C|--------------------------|---------------------------|
 G|---------------------6----|---------------------------| repeat all 4x
 C|-3p0----0--3p0----0--6----|-3p0----0--3p0----0--0--0--|

 outro                      3x
 C|---------------------------|      |-------------------------|
 G|---------------------------| then |---------------------6---|
 C|-6p0----0--6p0----0--6p0---|      |-6p0----0--6p0----0--6---|

 repeat all the outro 4x but on the 4rth time slide the last note down the neck to a
 rest. well thats all!!!! hope u enjoy this tab and pleeze rate it >=)~





     Band: KILLSWITCH ENGAGE
     Song: "To The Son Of Man"
       CD: "Alive Or Just Breathing"
   Length:

   Tuning: (C,G,C,F,A,D) - Low To High





     Verse 1 - (Guitar 1) - 2x

 D|--------------------------------|--------------------------|--------------------------------|--------------------------|
 A|--------------------------------|--------------------------|--------------------------------|--------------------------|
 F|--------------------------------|--------------------------|--------------------------------|--------------------------|
 C|--------------------------------|-----------------6--6-----|--------------------------------|--------------0h6h9-------|
 G|--------------------------------|-----------------6--6-----|--------------------------------|-------0h5h8--------0h5h8-|
 C|-3--3-3-3-3-3-3-6p3-3-3-3-3-3-3-|-6p3-3-3-3-3-3-3-------0--|-3--3-3-3-3-3-3-6p3-3-3-3-3-3-3-|-0h6h9--------------------|
 pm    . . . . . .     . . . . . .       . . . . . .               . . . . . .     . . . . . .


 D|--------------------------------|--------------------------|--------------------------------|------------------|
 A|--------------------------------|--------------------------|--------------------------------|------------------|
 F|--------------------------------|--------------------------|--------------------------------|------------------|
 C|--------------------------------|-----------------6--6-----|--------------------------------|-2----------------|
 G|--------------------------------|-----------------6--6-----|--------------------------------|-0--3--2--3--2--1-|
 C|-3--3-3-3-3-3-3-6p3-3-3-3-3-3-3-|-6p3-3-3-3-3-3-3-------0--|-3--3-3-3-3-3-3-6p3-3-3-3-3-3-3-|----3--2--3--2--1-|
 pm    . . . . . .     . . . . . .       . . . . . .               . . . . . .     . . . . . .


     Verse 1 - (Guitar 2) - 2x

 D|--------------------------------|--------------------------|--------------------------------|-----------------------------|
 A|--------------------------------|--------------------------|--------------------------------|-----------------------------|
 F|--------------------------------|--------------------------|--------------------------------|-----------------------------|
 C|--------------------------------|-----------------6--6-----|--------------------------------|---------------0h9h12--------|
 G|--------------------------------|-----------------6--6-----|--------------------------------|--------0h8h11--------0h8h11-|
 C|-3--3-3-3-3-3-3-6p3-3-3-3-3-3-3-|-6p3-3-3-3-3-3-3-------0--|-3--3-3-3-3-3-3-6p3-3-3-3-3-3-3-|-0h9h12----------------------|
 pm    . . . . . .     . . . . . .       . . . . . .               . . . . . .     . . . . . .


 D|--------------------------------|--------------------------|--------------------------------|------------------|
 A|--------------------------------|--------------------------|--------------------------------|------------------|
 F|--------------------------------|--------------------------|--------------------------------|------------------|
 C|--------------------------------|-----------------6--6-----|--------------------------------|-2----------------|
 G|--------------------------------|-----------------6--6-----|--------------------------------|-0--3--2--3--2--1-|
 C|-3--3-3-3-3-3-3-6p3-3-3-3-3-3-3-|-6p3-3-3-3-3-3-3-------0--|-3--3-3-3-3-3-3-6p3-3-3-3-3-3-3-|----3--2--3--2--1-|
 pm    . . . . . .     . . . . . .       . . . . . .               . . . . . .     . . . . . .            .  .  .





     Fill 1 - (Guitar 1) - 2x

 D|--------------------------------|------------------|--------------------------------|-----------------------|
 A|--------------------------------|------------------|--------------------------------|-----------------------|
 F|--------------------------------|------------------|--------------------------------|-----------------------|
 C|--------------------------------|-4/7--7--7--7\\4/7-|--------------------------------|----------4/7----------|
 G|--------------------------------|-2/5--5--5--5\\2/5-|--------------------------------|-------3-------6-------|
 C|-1--1-1-1-1-1-1-4p1-1-1-1-1-1-1-|------------------|-1--1-1-1-1-1-1-4p1-1-1-1-1-1-1-|-0--4-------------7--0-|


Important: The song above is NOT stored on the Chordie server. The original song is hosted at www.xguitar.com. Chordie works as a search engine and provides on-the-fly formatting. Chordie does not index songs against artists'/composers' will. To remove this song please click here.

This song is displayed as text-only. Transposing and tuning is only available for chordpro-songs.

Login - add to songbook

Rating click stars to rate

Layout
Accuracy

SHARE PAGE  




You need to log in to post comments