Guitar Tabs, Chords and Lyrics


Destroy All   Static X



Artist: Static-X
Album: Shadow Zone
Song: Destroy All
Tabber: John Van Savage


~ let ring
^ bend 1/2
r Release bend
t Tremolo (play note alot of times, really fast)


Wayne Static

Intro 1
D-------------------------------------------------------------
A-------------------------------------------------------------
F-------------------------------------------------------------
C-------------------------------------------------------------
G-------------------------------------------------------------
C--33-4-1--33-4-1--33-4-1--33----33-4-1--33-4-1--33-4-1--33---

Intro 2/ verse/ chorus/ bridge
D------------------------------
A------------------------------
F------------------------------
C------------------------------
G--33-4-1--33-4-1--33-4-1--33--
C--33-4-1--33-4-1--33-4-1--33--

intro
intro 2 x4
verse x4
intro x2
verse x4
chorus x4
intro x2
bridge x4
chorus x4
bridge x4
chorus x4

Rex Tripp Eisen

Intro 1
D------------------------------
A------------------------------
F------------------------------
C------------------------------
G------------------------------
C--33-4-1--33-4-1--33-4-1--33-- x2

Intro 2 (Weird Distortion)
D------------------------------------------
A---16~~~~---------------16~~~~~-----------
F------------------------------------------
C------------------------------------------
G------------------------------------------
C------------------------------------------ X2

verse
D------------------------------
A------------------------------
F------------------------------
C------------------------------
G------------------------------
C--33-4-1--33-4-1--33-4-1--33-- x4

Intro
D------------------------------
A------------------------------
F------------------------------
C------------------------------
G------------------------------
C--33-4-1--33-4-1--33-4-1--33-- x2

Verse
D------------------------------
A------------------------------
F------------------------------
C------------------------------
G------------------------------
C--33-4-1--33-4-1--33-4-1--33-- x4

Chorus (Weird Distortion 2)
D-----------------
A-------10t-------
F------------7t---
C-----------------
G-----------------
C----------------- x2

Bridge
D------------------------------
A------------------------------
F------------------------------
C------------------------------
G------------------------------
C--33-4-1--33-4-1--33-4-1--33-- x2

Chorus 2 (weird distortion 3)
D-----------------               D-----------------
A------12^r-------               A------12^r-------
F-----------------               F-----------------
C-----------------               C-----------------
G-----------------               G-----------------
C----------------- x15           C----------------- x15

Chorus (Weird Distortion 2)
D-----------------
A-------10t-------
F------------7t---
C-----------------
G-----------------
C----------------- x2

Bridge
D------------------------------
A------------------------------
F------------------------------
C------------------------------
G------------------------------
C--33-4-1--33-4-1--33-4-1--33-- x2





Important: The song above is NOT stored on the Chordie server. The original song is hosted at www.xguitar.com. Chordie works as a search engine and provides on-the-fly formatting. Chordie does not index songs against artists'/composers' will. To remove this song please click here.

This song is displayed as text-only. Transposing and tuning is only available for chordpro-songs.

Login - add to songbook

Rating click stars to rate

Layout
Accuracy

SHARE PAGE  




You need to log in to post comments