Guitar Tabs, Chords and Lyrics


Invincible   Static X



Band	Static-X
Song	Invincible
Tuning	C G C F A D
Aim	Empty St1tches
Email	SxRxnRRCoalChambr@Yahoo.com

Key:
~  - Let Ring
*  - Strum 8 Times
^  - Bend

Intro Gtr1
F|--------------|-----0-----0-----0-----0------0-----0-----0-----0-|
C|--------------|---0-----0-----0-----0------0-----0-----0-----0---|
G|-5~~6~~-3-2---|-1-----1-----0-----0------------------------------|
C|------------5-|--------------------------6-----6-----5-----5-----|

Intro Gtr2
D|-8~~~~~~3~~~~|
A|-------------|

Chorus (Rythem)
C|-8*-7*-6*-5*-|
G|-8*-7*-6*-5*-|
C|-8*-7*-6*-5*-|

Chorus (Lead w/Wah)
D|---|
A|-8-|
F|---|

Solo (Rythem)
C|-0-|
G|-0-|
C|-0-|

Solo (Lead w/Wah)  VSolo to chorus transition and chorus riffs after this
D|----------16^-|-15-|
A|-------15-----|----|
F|-16-17--------|----|

Bridge


Important: The song above is NOT stored on the Chordie server. The original song is hosted at www.xguitar.com. Chordie works as a search engine and provides on-the-fly formatting. Chordie does not index songs against artists'/composers' will. To remove this song please click here.

This song is displayed as text-only. Transposing and tuning is only available for chordpro-songs.

Login - add to songbook

Rating click stars to rate

Layout
Accuracy

SHARE PAGE  




You need to log in to post comments