Guitar Tabs, Chords and Lyrics


Otsegolectric   Static X



Static-X - Otsegolectric
Submitted By: Metal_Finch
EMail: nu_metal89@hotmail.com


Tuning: Drop D - D A D G B e

Intro:
e|-----------------------------------------------|
B|-----------------------------------------------|
G|-----------------------------------------------|
D|--1---1---1-1-1-4---1---1-1-1-1---1---1-1-1-3--|
A|--1---1---1-1-1-----1---1-1-1-----1---1-1-1----|
D|--1---1---1-1-1-----1---1-1-1-----1---1-1-1----|

e|-----------------------------------------------|
B|-----------------------------------------------|
G|------------------------------1----------------|
D|--1---1---1-1-1-4---1---1-1-1-----1---1-1-1-3--|
A|--1---1---1-1-1-----1---1-1-1-----1---1-1-1----|
D|--1---1---1-1-1-----1---1-1-1-----1---1-1-1----|

Verse: 0:21 Guitar 1
e|-----------------------------------------------|
B|-----------------------------------------------|
G|-----------------------------------------------|
D|--5555--------5555--------5555--------5555-----|
A|--3333--------3333--------3333--------3333-----|
D|-----------------------------------------------|

Guitar 2 (lead)
e|-----------------------------------------------|
B|--8-----8--9-----9--11---11--9-----9-----------|
G|-----5--------6--------8--------6--------------|
D|-----------------------------------------------|
A|-----------------------------------------------|
D|-----------------------------------------------|

Chorus: 0:32
e|-----------------------------------------------|
B|-----------------------------------------------|
G|-----------------------------------------------|
D|--1---1---1-1-1-4---1---1-1-1-1---1---1-1-1-3--|
A|--1---1---1-1-1-----1---1-1-1-----1---1-1-1----|
D|--1---1---1-1-1-----1---1-1-1-----1---1-1-1----|

e|-----------------------------------------------|
B|-----------------------------------------------|
G|------------------------------1----------------|
D|--1---1---1-1-1-4---1---1-1-1-----1---1-1-1-3--|
A|--1---1---1-1-1-----1---1-1-1-----1---1-1-1----|
D|--1---1---1-1-1-----1---1-1-1-----1---1-1-1----|

Bridge: 1:05
e|-----------------------------------------------|
B|-----------------------------------------------|
G|--3~-------------------------------------------|
D|--1~--------1-1-1-1--1--1----1-1-1-1--1--1-----|
A|------------1-1-1-1--1--1----1-1-1-1--1--1-----|
D|------------1-1-1-1--1--1----1-1-1-1--1--1-----|

1:30 Guitar 1
e|-----------------------------------------------|
B|-----------------------------------------------|
G|-----------------------------------------------|
D|--5555--------5555--------5555--------5555-----|
A|--3333--------3333--------3333--------3333-----|
D|-----------------------------------------------|

Guitar 2 (lead)
e|-----------------------------------------------|
B|--------------444--44466677666444--------------|
G|--55566655-666---66--------------66------------|
D|-----------------------------------------------|
A|-----------------------------------------------|


Important: The song above is NOT stored on the Chordie server. The original song is hosted at www.xguitar.com. Chordie works as a search engine and provides on-the-fly formatting. Chordie does not index songs against artists'/composers' will. To remove this song please click here.

This song is displayed as text-only. Transposing and tuning is only available for chordpro-songs.

Login - add to songbook

Rating click stars to rate

Layout
Accuracy

SHARE PAGE  




You need to log in to post comments