Guitar Tabs, Chords and Lyrics


Shadow Zone   Static X



Artist: Static-X
Song: Shadow Zone
Date: 07/11/03
Tabbed By: Kyle McPaul

Bend       b^
Vibrato    ~
hammeron   >
pulloff    <
slide up   /
slide down \\
harmonics  *
palm mute  pm...... (underneath tab)
x          muted strings (put your finger slightly on them)



Intro:

D|-----------------------------|
A|-----------------------------|
F|-8-8-8---8-8-8---8-8-8---8-8-|
C|-x-x-x---x-x-x---x-x-x---x-x-|
G|-6-6-6---6-6-6---6-6-6---6-6-|
C|-----------------------------|

Chorus: riff 2x

D|-----------------------|
A|-----------------------|
F|-----------------------|
C|-0--------3----6-------|
G|-0--------3----6-------|
C|-0--------3----6-------|

D|------------------------------------|
A|------------------------------------|
F|------------------------------------|
C|-0---------------3----6------3-3-3b^|
G|-0---------------3----6------3-3-3b^|
C|-0---------------3----6------3-3-3b^|

Lead: Played Over Chorus riff

D|----10----10----10----10----10|
A|-10----10----10----10----10---|
F|------------------------------|
C|------------------------------|
G|------------------------------|
C|------------------------------|

Verse:3x

D|-----------------|
A|-----------------|
F|--xx-xx-xx-xx-x--|
C|-0--0--0--0--0-6-|
G|-0--0--0--0--0-6-|
C|-0--0--0--0--0-6-|

Then Verse Part 2 1x

D|-------------------|
A|-------------------|
F|--xx-xx-xx---------|
C|-0--0--0--0--3334\\1|
G|-0--0--0--0--3334\\1|
C|-0--0--0--0--3334\\1|

Repeat verses 4x

Verse Lead: played over verse 4th time only

D|----13---------13----17----|
A|-15----13-12------15-------|
F|------------------------12-|
C|---------------------------|
G|---------------------------|
C|---------------------------|

Chorus: With Lyrics Once

D|-----------------------|
A|-----------------------|
F|-----------------------|
C|-0--------3----6-------|
G|-0--------3----6-------|
C|-0--------3----6-------|

D|-----------------------------|
A|-----------------------------|
F|-----------------------------|
C|-0--------3----6------3-3-3b^|
G|-0--------3----6------3-3-3b^|
C|-0--------3----6------3-3-3b^|

Lead: Played Over Chorus

D|----15----15----15----15----15|
A|-15----15----15----15----15---|
F|------------------------------|
C|------------------------------|
G|------------------------------|
C|------------------------------|

Repeat Verse

Chorus 1x.

Interlude 4x

D|-----------------|
A|-----------------|
F|-----------------|
C|-0--0--0--0--0-6-|
G|-0--0--0--0--0-6-|
C|-0--0--0--0--0-6-|

Bridge: 4x

D|-----------------|
A|-----------------|
F|-----------------|
C|-0---8---6---1---|
G|-0---8---6---1---|
C|-0---8---6---1---|

Chorus: 2x

Quick Intro to Last Verse

D|---------------|
A|---------------|
F|-8-8-8---8-8-8-|
C|-x-x-x---x-x-x-|
G|-6-6-6---6-6-6-|
C|---------------|

Verse:3x

D|-----------------|
A|-----------------|
F|--xx-xx-xx-xx-x--|
C|-0--0--0--0--0-6-|
G|-0--0--0--0--0-6-|
C|-0--0--0--0--0-6-|

Then Verse Part 2 1x

D|-------------------|
A|-------------------|
F|--xx-xx-xx---------|
C|-0--0--0--0--3334\\1|
G|-0--0--0--0--3334\\1|
C|-0--0--0--0--3334\\1|



Important: The song above is NOT stored on the Chordie server. The original song is hosted at www.xguitar.com. Chordie works as a search engine and provides on-the-fly formatting. Chordie does not index songs against artists'/composers' will. To remove this song please click here.

This song is displayed as text-only. Transposing and tuning is only available for chordpro-songs.

Login - add to songbook

Rating click stars to rate

Layout
Accuracy

SHARE PAGE  




You need to log in to post comments