Guitar Tabs, Chords and Lyrics


The Only   Static X



Intro
C |-----------------------------------------------------|
G |-----------------------------------------------------|
D#|-----------------------------------------------------|
A#|-2~--2-------5~--5-8~-----2~--2-------5~--5----------|
F |-2~--2-5~--5-3~--3-6~--7--2~--2-5~--5-3~--3-4-6------|
C |-0~--0-3~--3--------------0~--0-3~--3-------2-4------|

This is played by tripp starting after the 7 is hit
C |------------------------|
G |------------------------|
D#|--16-------14-------13--|
A#|---x--------x—-------x--|
F |--14-------12-------10--|
C |------------------------|

C |--------------------|
G |--------------------|
D#|--10-------13-------|
A#|---x--------x-------|
F |---8-------10-------|
C |--------------------|

Verse 5x
C#|----12--14--15--14-------|
G#|------12--12--12--12-----|
E |-------------------------|
B |-------------------------|
F#|-------------------------|
C#|-------------------------|

Chorus
C |-----------------------------------------------------|
G |-----------------------------------------------------|
D#|-----------------------------------------------------|
A#|-2~--2-------5~--5-8~-----2~--2-------5~--5----------|
F |-2~--2-5~--5-3~--3-6~--7--2~--2-5~--5-3~--3-4-6------|
C |-0~--0-3~--3--------------0~--0-3~--3-------2-4------|

C |------------------------|
G |------------------------|
D#|--16-------14-------13--|
A#|---x--------x—-------x--|
F |--14-------12-------10--|
C |------------------------|

C |--------------------|
G |--------------------|
D#|--10-------13-------|
A#|---x--------x-------|
F |---8-------10-------|
C |--------------------|

Verse 5x
C |----12--14--15--14-------|
G |------12--12--12--12-----|
D#|-------------------------|
A#|-------------------------|
F |-------------------------|
C |-------------------------|

Chorus
C |-----------------------------------------------------|
G |-----------------------------------------------------|
D#|-----------------------------------------------------|
A#|-2~--2-------5~--5-8~-----2~--2-------5~--5----------|
F |-2~--2-5~--5-3~--3-6~--7--2~--2-5~--5-3~--3-4-6------|
C |-0~--0-3~--3--------------0~--0-3~--3-------2-4------|

C |------------------------|
G |------------------------|
D#|--16-------14-------13--|
A#|---x--------x—-------x--|
F |--14-------12-------10--|
C |------------------------|

C |--------------------|
G |--------------------|
D#|--10-------13-------|
A#|---x--------x-------|
F |---8-------10-------|
C |--------------------|

Ok now I don’t know the harmonics that tripp hits before this part so someone help
Bridge
C |----------------------------------------------------------|
G |----------------------------------------------------------|
D#|-8----11-10-6----8-7--------------------------------------|
A#|-x----x--x--x----x-x-10-9-10-12--13---12--13--12—-13--16--|
F |-6----9--8--4----9-8-x--x--x--x--x-----x---x--x---x----x--|
C |---------------------8--7--8--9--11----9—-11--9---11—-14--|

C |------------------------|
G |------------------------|
D#|--16-------14-------13--|
A#|---x--------x—-------x--|
F |--14-------12-------10--|
C |------------------------|

C |--------------------|
G |--------------------|
D#|--10-------13-------|
A#|---x--------x-------|
F |---8-------10-------|
C |--------------------|

Bridge 2
C |----------------|----------------------|
G |----------------|----------------------|
D#|----------------|----------------------|
A#|----------------|----------------------|
F |---5\\4-4--5\\4-4-|-5\\4-4—-5\\4-4--------|
C |---2\\2-2--2\\2-2—|-2\\2-2--2\\2-2-2*------|

Chorus 2x
C |-----------------------------------------------------|
G |-----------------------------------------------------|
D#|-----------------------------------------------------|
A#|-2~--2-------5~--5-8~-----2~--2-------5~--5----------|
F |-2~--2-5~--5-3~--3-6~--7--2~--2-5~--5-3~--3-4-6------|
C |-0~--0-3~--3--------------0~--0-3~--3-------2-4------|

C |------------------------|
G |------------------------|
D#|--16-------14-------13--|
A#|---x--------x—-------x--|
F |--14-------12-------10--|
C |------------------------|

C |--------------------|
G |--------------------|
D#|--10-------13-------|
A#|---x--------x-------|
F |---8-------10-------|
C |--------------------|

Outro
C |---------|
G |---------|
D#|---------|
A#|-2-22-22-|
F |-2-22-22-|
C |-0-00-00-|



Important: The song above is NOT stored on the Chordie server. The original song is hosted at www.xguitar.com. Chordie works as a search engine and provides on-the-fly formatting. Chordie does not index songs against artists'/composers' will. To remove this song please click here.

This song is displayed as text-only. Transposing and tuning is only available for chordpro-songs.

Login - add to songbook

Rating click stars to rate

Layout
Accuracy

SHARE PAGE  




You need to log in to post comments