Guitar Tabs, Chords and Lyrics


The Trance Is The Motion   Static X



X===============================PLEASE NOTE==============================X
X  This tab is all my own and represents my interpretation of the song.  X
X You may only use this tab for private study, scholarship, or research. X
X  Do not change, deface, mutilate, or in any other way alter this tab.  X
X   You must email me first if you want to use this tab on your site.    X
X========================================================================X
*Trance is the Motion*
Transcribed by Obscured@san.rr.com
Http://home.san.rr.com/obscured
Tuning: C F A# D# G C
INTRO - Synth intro for about 45 sec

|----15-------15----------------------|
|----19-------19----------------------|
|-------------------------------------|
|-2------2-2------2--2-2-2-2--2--2----|
|-2------2-2------2--2-2-2-2--2--2----|
|-0------0-0------0--0-0-0-0--0--0----|
  .      ...      .  .......  .  .

|----15-------15----------------------|
|----19-------19----------------------|
|-------------------------------------|
|-2------2-2------2--2-2-2-2--2-------|
|-2------2-2------2--2-2-2-2--2-------|
|-0------0-0------0--0-0-0-0--0-------|
  .      ...      .  .......  .

|----15-------15----------------------|
|----19-------19----------------------|
|-------------------------------------|
|-2------2-2------2--2-2-2-2--2--2----|
|-2------2-2------2--2-2-2-2--2--2----|
|-0------0-0------0--0-0-0-0--0--0----|
  .      ...      .  .......  .  .

|----15-------15----------------------|
|----19-------19----------------------|
|-------------------------------------|
|-2------2-2------2--2-2-2-2--2-------|
|-2------2-2------2--2-2-2-2--2-------|
|-0------0-0------0--0-0-0-0--0-------|
  .      ...      .  .......  .
VERSE
                          x2
|-15------------------------|
|----19-----------15--------|
|--------------18-----------|
|---------------------------|
|---------------------------|
|---------------------------|
PRECHORUS
|----15-------15----------------------|
|----19-------19----------------------|
|-------------------------------------|
|-2------2-2------2--2-2-2-2--2--2----|
|-2------2-2------2--2-2-2-2--2--2----|
|-0------0-0------0--0-0-0-0--0--0----|
  .      ...      .  .......  .  .

|----15-------15----------------------|
|----19-------19----------------------|
|-------------------------------------|
|-2------2-2------2--2-2-2-2--2-------|
|-2------2-2------2--2-2-2-2--2-------|
|-0------0-0------0--0-0-0-0--0-------|
  .      ...      .  .......  .

|----15-------15----------------------|
|----19-------19----------------------|
|-------------------------------------|
|-2------2-2------2--2-2-2-2--2--2----|
|-2------2-2------2--2-2-2-2--2--2----|
|-0------0-0------0--0-0-0-0--0--0----|
  .      ...      .  .......  .  .

|----15-------15----------------------|
|----19-------19----------------------|
|-------------------------------------|
|-2------2-2------2--2-2-2-2--2-------|
|-2------2-2------2--2-2-2-2--2-------|
|-0------0-0------0--0-0-0-0--0-------|
  .      ...      .  .......  .
VERSE 2
                          x2
|-15------------------------|
|----19-----------15--------|
|--------------18-----------|
|---------------------------|
|---------------------------|
|---------------------------|
CHORUS
                    x2
|---------------------|
|---------------------|
|---------------------|
|-2----3----2----3----|
|-2----3----2----3----|
|-0----1----0----1----|

Then hit this
|----------|
|----------|
|----------|
|-2--------|
|-2--------|
|-0--------|
BRIDGE - Synth only
CHORUS 2
|---------------------|
|---------------------|
|---------------------|
|-2----3----2----3----|
|-2----3----2----3----|
|-0----1----0----1----|
PRECHORUS 2
|----15-------15----------------------|
|----19-------19----------------------|
|-------------------------------------|
|-2------2-2------2--2-2-2-2--2--2----|
|-2------2-2------2--2-2-2-2--2--2----|
|-0------0-0------0--0-0-0-0--0--0----|
  .      ...      .  .......  .  .

|----15-------15----------------------|
|----19-------19----------------------|
|-------------------------------------|
|-2------2-2------2--2-2-2-2--2-------|
|-2------2-2------2--2-2-2-2--2-------|
|-0------0-0------0--0-0-0-0--0-------|
  .      ...      .  .......  .

|----15-------15----------------------|
|----19-------19----------------------|
|-------------------------------------|
|-2------2-2------2--2-2-2-2--2--2----|
|-2------2-2------2--2-2-2-2--2--2----|
|-0------0-0------0--0-0-0-0--0--0----|
  .      ...      .  .......  .  .

|----15-------15----------------------|
|----19-------19----------------------|
|-------------------------------------|
|-2------2-2------2--2-2-2-2--2-------|
|-2------2-2------2--2-2-2-2--2-------|
|-0------0-0------0--0-0-0-0--0-------|
  .      ...      .  .......  .
VERSE 3
                          x2
|-15------------------------|
|----19-----------15--------|
|--------------18-----------|
|---------------------------|
|---------------------------|
|---------------------------|

             x3
|-15-----------|
|----19--------|
|--------------|
|--------------|
|--------------|
|--------------|
CHORUS 3
                    x3
|---------------------|
|---------------------|
|---------------------|
|-2----3----2----3----|
|-2----3----2----3----|
|-0----1----0----1----|
OUTRO - Synth only


Important: The song above is NOT stored on the Chordie server. The original song is hosted at www.xguitar.com. Chordie works as a search engine and provides on-the-fly formatting. Chordie does not index songs against artists'/composers' will. To remove this song please click here.

This song is displayed as text-only. Transposing and tuning is only available for chordpro-songs.

Login - add to songbook

Rating click stars to rate

Layout
Accuracy

SHARE PAGE  




You need to log in to post comments