Guitar Tabs, Chords and Lyrics


Wisconsin Death Trip   Static X



X===============================PLEASE NOTE==============================X
X  This tab is all my own and represents my interpretation of the song.  X
X You may only use this tab for private study, scholarship, or research. X
X  Do not change, deface, mutilate, or in any other way alter this tab.  X
X   You must email me first if you want to use this tab on your site.    X
X========================================================================X
*Wisconsin Death Trip*
Transcribed by Obscured@san.rr.com
Http://home.san.rr.com/obscured
Tuning: C F A# D# G C
INTRO
              x7
|-x-x---x-x-x-x-|
|-x-x---x-x-x-x-|
|-x-x---x-x-x-x-|
|-x-x---x-x-x-x-|
|-x-x---x-x-x-x-|
|-x-x---x-x-x-x-|

|-x-x---x-x-x---|
|-x-x---x-x-x---|
|-x-x---x-x-x---|
|-x-x---x-x-x---|
|-x-x---x-x-x-7-|
|-x-x---x-x-x-0-|
VERSE
             x12
|---------------|
|---------------|
|---------------|
|-7---------7---|
|-7-7---7-7-7-7-|
|-5-0---0-0-5-0-|
BRIDGE - Bass only

Play this right before the next verse (triplets)
|-x-x-x-x-x-x-|
|-x-x-x-x-x-x-|
|-x-x-x-x-x-x-|
|-x-x-x-x-x-x-|
|-x-x-x-x-x-x-|
|-x-x-x-x-x-x-|
  \-3-/ \-3-/
VERSE 2
              x8
|---------------|
|---------------|
|---------------|
|-7---------7---|
|-7-7---7-7-7-7-|
|-5-0---0-0-5-0-|
CHORUS
              x8
|---------------|
|---------------|
|---------------|
|-8-7---8-7-8-7-|
|-8-7---8-7-8-7-|
|-6-5---6-5-6-5-|
BRIDGE 2
              x3
|-x-x---x-x-x-x-|
|-x-x---x-x-x-x-|
|-x-x---x-x-x-x-|
|-x-x---x-x-x-x-|
|-x-x---x-x-x-x-|
|-x-x---x-x-x-x-|

|-x-x---x-x-x---|
|-x-x---x-x-x---|
|-x-x---x-x-x---|
|-x-x---x-x-x---|
|-x-x---x-x-x-7-|
|-x-x---x-x-x-0-|
VERSE 3
              x8
|---------------|
|---------------|
|---------------|
|-7---------7---|
|-7-7---7-7-7-7-|
|-5-0---0-0-5-0-|
CHORUS 2
              x4
|---------------|
|---------------|
|---------------|
|-8-7---8-7-8-7-|
|-8-7---8-7-8-7-|
|-6-5---6-5-6-5-|

              x4
|---------------|
|---------------|
|---------------|
|-3-2---3-2-3-2-|
|-3-2---3-2-3-2-|
|-1-0---1-0-1-0-|
INTERLUDE
                         x9
|--------------------------|
|--------------------------|
|--------------------------|
|--------------------------|
|--------------------------|
|-0--0--0--0-0--0--0-0--0--|
  .......................

|-12--12--12--12-12--12--12-12--12-|
|----------------------------------|
|----------------------------------|
|----------------------------------|
|----------------------------------|
|----------------------------------|

                         x8
|--------------------------|
|--------------------------|
|--------------------------|
|--------------------------|
|--------------------------|
|-0--0--0--0-0--0--0-0--0--|
  .......................
CHORUS 3
              x8
|---------------|
|---------------|
|---------------|
|-8-7---8-7-8-7-|
|-8-7---8-7-8-7-|
|-6-5---6-5-6-5-|
VERSE 4
              x8
|---------------|
|---------------|
|---------------|
|-7---------7---|
|-7-7---7-7-7-7-|
|-5-0---0-0-5-0-|
OUTRO
                              x7
|-------------------------------|
|-------------------------------|
|-------------------------------|
|-------------------------------|
|-------------------------------|
|-0--0--0--0-0--0--0-0--0-0-0-0-|
  .............................

End on
|--------------------------|
|--------------------------|
|--------------------------|
|-2--2--2--2-2--2--2-2--2--|
|-2--2--2--2-2--2--2-2--2--|
|-0--0--0--0-0--0--0-0--0--|
  .......................


Important: The song above is NOT stored on the Chordie server. The original song is hosted at www.xguitar.com. Chordie works as a search engine and provides on-the-fly formatting. Chordie does not index songs against artists'/composers' will. To remove this song please click here.

This song is displayed as text-only. Transposing and tuning is only available for chordpro-songs.

Login - add to songbook

Rating click stars to rate

Layout
Accuracy

SHARE PAGE  




You need to log in to post comments