Guitar Tabs, Chords and Lyrics


Doorman   Stereophonics



STEREOPHONICS-DOORMAN
LANGUAGE.SEX.VIOLENCE.OTHER?

Tabbed by Tom Woo (strato32)

Standard Tuning

This is from the DVD that you could get with the album but is also right for the proper album track.

-----------------------------------------------------------------
-----------------------------------------------------------------
-9-9-9-9-9-9-9-9-9-9-9-9-9-9-9-9---------------------------------
-9-9-9-9-9-9-9-9-9-9-9-9-9-9-9-9---------------------------------
-7-7-7-7-7-7-7-7-7-7-7-7-7-7-7-7-7-7-7-7-7-7-7-7-7-7-7-7-7--5-5--
---------------------------------5-5-5-5-5-5-5-5-5-5-5-5-5--3-3--

There is then this bit. The first time (whole part inc. brackets) I think this is played 1 time
more then back to the chords but most of the time its like this. (without brackets)

------------------------------------
------------------------------------
------------------------------------
------------------------------------
------5-5-----5-5-----5-5---(--5-5)-
--0-0-3-3-0-0-3-3-0-0-3-3-0-(0-3-3)-

This riff is then played on guitar and bass on the dvd but on the album the guitar does a higher version with bends in it.

-------------------------------
-------------------------------
-------------------------------
--2----------------------------
----3-2-2----------------------
----------3-3-2-3-0------------
This is repeated a few times then these chords are played.
Just before the chords you dont play the E open in the little riff.
-------------
-------------
-------------
-------------
-7-7-7-7-7-5-


Important: The song above is NOT stored on the Chordie server. The original song is hosted at www.xguitar.com. Chordie works as a search engine and provides on-the-fly formatting. Chordie does not index songs against artists'/composers' will. To remove this song please click here.

This song is displayed as text-only. Transposing and tuning is only available for chordpro-songs.

Login - add to songbook

Rating click stars to rate

Layout
Accuracy

SHARE PAGE  




You need to log in to post comments