Guitar Tabs, Chords and Lyrics


Pedalpusher   Stereophonics



Band: Stereophonics
Song: PedalPusher
Album: Language, Sex, Violence, Other?

Tuning: Standard
Tabber: Matt Gibson - shufonpunk



Intro and Verse


E|----------------------------------------------------
B|----------------------------------------------------
G|--14-14-------------11-11----11-11----11-11---------
D|--14-14----12-12----11-11----11-11----11-11---------
A|--12-12----12-12-----9--9----9--9------9--9---------
E|-----------10-10------------------------------------


Chorus


E|---------------------------
B|---------------------------
G|--------------66666666-----
D|--99999999----66666666-----
A|--99999999----44444444-----
E|--77777777-----------------


Thats basically it for the song. Theres no other chords
Sometimes the chorus repeats a few times over so just repeat the 2 chords.


Important: The song above is NOT stored on the Chordie server. The original song is hosted at www.xguitar.com. Chordie works as a search engine and provides on-the-fly formatting. Chordie does not index songs against artists'/composers' will. To remove this song please click here.

This song is displayed as text-only. Transposing and tuning is only available for chordpro-songs.

Login - add to songbook

Rating click stars to rate

Layout
Accuracy

SHARE PAGE  




You need to log in to post comments