Just Looking

Stereophonics

 F132211
 C       032010
D* 054030
Em7 022033
Verse Riff 1:
 G
e-----------------------------------
b---3---1------------3---1---------
g-----0---0-2-0----------0-- 0-2-0-
d-----------------------------------
a-----------------------------------
e-3------------------3--------------

Verse Riff 2:
 Cadd9
e------------------------------------
b---3---1------------3---1----------
g-----0---0-2-0----------0-- 0-2-0--
d------------------------------------
a-3------------------3---------------
e------------------------------------

Bridge Riff 1:
 Am7
e----------------------------
b---1-0-1-0-1---1-0-1-0-1--
g-----------------------------
d-----------------------------
a-0------------0--------------
e------------------------------

Bridge Riff 2:
 F
e-----------------------------
a--1-0-1-0-1---1-0-1-0-1-
g----------------------------
d----------------------------
a--------------------------
e-1------------1------------

The notes on the Low E and A string are really bass notes, so
instead the appropriate chord can be strumed then the riff played
Intro:
Verse Riff 1
Verse Riff 2
Verse 1:
Verse Riff 1
There's things i want
Verse Riff 2
There's things i think i want
Verse Riff 1
There's things i'll have
Verse Riff 2
There's things i wanna have
Bridge 1:
Bridge Riff 1
Do I want the dreams?
Bridge Riff 2
The ones we're forced to see
Verse 2:
Verse Riff 1
Do i want the perfect wife?
Verse Riff 2
But perfect ain't quite right
Verse Riff 1
Shopping everyday
Verse Riff 2
Take it back the next break
Bridge 2:
Bridge Riff 1
You more you fly
Bridge Riff 2
The more you risk your life
Chrous:
 GCadd9
And I'm just looking 
 GCadd9
I'm not buying 
 GCadd9
I'm just looking 
 GCadd9
Keeps me smiling 
Verse 3:
Verse Riff 1
How a sour it's seems
Verse Riff 2
Another could've been
Verse Riff 1
You drenched my heads
Verse Riff 2
And said what i saidBridge 3:
Bridge Riff 1
You said that life is what you make of it
Bridge Riff 2
But most of us just fade
Chrous:
 GCadd9
And I'm just looking 
 GCadd9
I'm not buying 
 GCadd9
I'm just looking 
 GCadd9
Keeps me smiling 
Solo / Break
C D*
C D*
C D*
C D* Em7 G
(Well somwthing like this anyway!!)
Chrous:
 GCadd9
And I'm just looking 
 GCadd9
I'm not buying 
 GCadd9
I'm just looking 
 GCadd9
Keeps me trying 
Chrous:
 GCadd9
And I'm just looking 
 GCadd9
I'm not buying 
 GCadd9
I'm just looking 
 GCadd9
Keeps me smiling 
Verse 4:
Verse Riff 1
Theres' thing i want
Verse Riff 2
There's thing i think i want
Verse Riff 1
There's things i'll have
Verse Riff 2
There's things i wanna have
Bridge 4:
Bridge Riff 1
They say the more you fly
Bridge Riff 2
The more you risk your life
Outro Chrous: Gentler Strumming!!!
 GCadd9
And I'm just looking 
 GCadd9
I'm not buying 
 GCadd9
I'm just looking 
 GCadd9
Keeps me smiling 


Am7 Cadd9 F G
variations - click chord images
Transpose chords:
Tuning:
Cool service:
View: Size:
A  A  A
Rating:
Layout:
  • Currently 2.5/5 Stars.
  • 1
  • 2
  • 3
  • 4
  • 5
 
Accuracy:
  • Currently 2.7/5 Stars.
  • 1
  • 2
  • 3
  • 4
  • 5
 
click stars to rate
Chordie recommends:
Get acoustic guitar lessons and electric guitar lessons at JamPlay.com
Songbook:
Login to add this song to your songbook
Support the artist
Preview/buy this song
MSN Music
Why this non-profit ad?

 
login to add comments/video/corrections