Guitar Tabs, Chords and Lyrics


Madame Helga   Stereophonics



Intro

Both Guitars
--------------------------------------------------------
--------------------------------------------------------
----14(16)--14(16)--14---14---11----11------------------x3
----------------------------------------14---12---------
-------------------------------------------------14-----
--------------------------------------------------------

Guitar 1
--------------------------------------------------------
--------------------------------------------------------
---14(16)---14(16)---14(16)--14(16)---------------------
--------------------------------------------------------
--------------------------------------------------------
--------------------------------------------------------
Guitar 2
--------------------------------------------------------
--------------------------------------------------------
--------------------------------------------------------
---14(16)--14-12------14(16)--14-12----14(16)--14-12----
-----------------14-----------------14---------------14-
--------------------------------------------------------

Verse

Guitar 1
--------------x-x-x----------------x-x-x----------------
------4--4----x-x-x-----4--4-------x-x-x----------------
------4--4----x-x-x-----4--4-------x-x-x----------------x4 (with fills in between)
------4--4----x-x-x-----4--4-------x-x-x----------------
------2--2----x-x-x-----2--2-------x-x-x----------------
--------------x-x-x----------------x-x-x----------------
Guitar 2 (with wah pedal)

--------------------------------------------------------
--------------------------------------------------------
------4--4--4----4--4--4----4--4--4----4--4--4----------
--------------------------------------------------------
--------------------------------------------------------
--------------------------------------------------------

Fill Riff (1st and 3rd time)        Fill Riff (2nd and 4th Time)
----------------------------------- -----------------------------------------
----------------------------------- -----------------------------------------
----------------------------------- -----------------------------------------
-------------------7---7-9--------- -----------------------------------------
-2--2-2--5-7-5-8-9---9------------- -2--2-2--5-7-5-8-9-7-5-2-0-2-------------
----------------------------------- -----------------------------------------


Pre Chorus
(x2)
--2-2-2---x-x-x--2--2---x-x-x--
--3-3-3---x-x-x--3--3---x-x-x--
--2-2-2---x-x-x--2--2---x-x-x--
--0-0-0---x-x-x--0--0---x-x-x--
----------x-x-x---------x-x-x--
----------x-x-x---------x-x-x--

Link

----------------------------------------------------------------------
----------------------------------------------------------------------
----------------------------------------------------------------------
-4--4--5--5--6--6--6--7--7--7--8--8--9--9--10--10--11--11-------------
-4--4--5--5--6--6--6--7--7--7--8--8--7--7--10--10--11--11-------------
-2--2--3--3--4--4--4--5--5--5--6--6--7--7---8---8---9---9-------------


Chorus

----------------------------------------------------------------------------
----------------------------------------------------------------------------
-7--7-7-7-7-7-7-7-7-7-7-7-7-7-7-x-------------------------------------------
-7--7-7-7-7-7-7-7-7-7-7-7-7-7-7-x-2--2-2-2-2-2-2----------------------------
-5--5-5-5-5-5-5-5-5-5-5-5-5-5-5-x-2--2-2-2-2-2-2--4--5--4-2-----------------
----------------------------------0--0-0-0-0-0-0------------5-3-------------

----------------------------------------------------------------------------
----------------------------------------------------------------------------
-------------------------------7--7-7-7-7-7-7-------------------------------
-5-5-5-5-5-5-5-5-5-5-5-5-5-5-x-7--7-7-7-7-7-7--4---5---6---7----------------
-5-5-5-5-5-5-5-5-5-5-5-5-5-5-x-5--5-5-5-5-5-5--4---5---6---7----------------
-3-3-3-3-3-3-3-3-3-3-3-3-3-3-x-----------------2---3---4---5----------------

----------------------------------------------------------------------------
----------------------------------------------------------------------------
-7--7-7-7-7-7-7-7-7-7-7-7-7-7-7-x-------------------------------------------
-7--7-7-7-7-7-7-7-7-7-7-7-7-7-7-x-2--2-2-2-2-2-2----------------------------
-5--5-5-5-5-5-5-5-5-5-5-5-5-5-5-x-2--2-2-2-2-2-2--4--5--4-2-----------------
----------------------------------0--0-0-0-0-0-0------------5-3-------------

----------------------------------------------------------------------------
----------------------------------------------------------------------------
-------------------------------7--7-7-7-7-7-7-------------------------------
-5-5-5-5-5-5-5-5-5-5-5-5-5-5-x-7--7-7-7-7-7-7-------------------------------
-5-5-5-5-5-5-5-5-5-5-5-5-5-5-x-5--5-5-5-5-5-5--3h5-5-3h5-5-3h5-5-3h5-5-3h5-5
-3-3-3-3-3-3-3-3-3-3-3-3-3-3-x----------------------------------------------


Solo

(guitar 1) Wah Pedal
-------------------------------
--12-10------------------------
---------11-10-9-9--9p7--7-----x3
-----------------------9---9---
-------------------------------
-------------------------------

-----------------------------------------------------------------------------
--12-10------10--10(12)--------(12)--(12)--(12)--(12)--(12)--(12)--(12)--(12)
---------11------------------------------------------------------------------
-----------------------------------------------------------------------------
-----------------------------------------------------------------------------
-----------------------------------------------------------------------------


Ending

-------------------------------------------------------------------------------
-------------------------------------------------------------------------------
-----------------------------------------------------------------7-------------
--4--4--5--5--6--6--7--7--8--8--8--9--9--9--10--10--11--11--11---7-------------
--4--4--5--5--6--6--7--7--8--8--8--9--9--9--10--10--11--11--11---5-------------
--2--2--3--3--4--4--5--5--6--6--6--7--7--7---8---8---9---9---9-----------------


STRUCTURE

Intro
Verse
Prechorus
Link
Chorus
Intro
Verse
Prechorus
Link
Chorus
Solo
Chorus


Important: The song above is NOT stored on the Chordie server. The original song is hosted at www.xguitar.com. Chordie works as a search engine and provides on-the-fly formatting. Chordie does not index songs against artists'/composers' will. To remove this song please click here.

This song is displayed as text-only. Transposing and tuning is only available for chordpro-songs.

Login - add to songbook

Rating click stars to rate

Layout
Accuracy

SHARE PAGE  




You need to log in to post comments