Guitar Tabs, Chords and Lyrics


Take the Money and Run    Steve Miller



Ok this is my first tab. Hope it sounds good.

Standard Tunning----

E-------------------------------------------------------------
B-------------------------------------------------------------
G----------------5------------------5-------------------------
D--5-------------3------------------5-------------------------
A--5--------------------------------3-------------------------
E--3----------------------------------------------------------
  This here's a story 'bout Billy Joe and Bobby Sue

E-------------------------------------------------------------
B-------------------------------------------------------------
G--------------5----------5-----------------------------------
D--5-----------3----------5-----------------------------------
A--5----------------------3-----------------------------------
E--3----------------------------------------------------------
  Two young lovers with nothin better to do
E-------------------------------------------------------------
B-------------------------------------------------------------
G-------------------------5--------5--------------------------
D--5----------------------3--------5--------------------------
A--5-------------------------------3--------------------------
E--3----------------------------------------------------------
  Then to sit around the house get high watch the tube
E-------------------------------------------------------------
B-------------------------------------------------------------
G---------------5------------------5--------------------------
D--5------------3------------------5--------------------------
A--5-------------------------------3--------------------------
E--3----------------------------------------------------------
   Here's what happened when they decided to cut loose
E-------------------------------------------------------------
B-------------------------------------------------------------
G-------------5--------5--------------------------------------
D--5----------3--------5--------------------------------------
A--5-------------------3--------------------------------------
E--3----------------------------------------------------------
   They headed down to old El Paso
E-------------------------------------------------------------
B-------------------------------------------------------------
G--------------------5---------5------------------------------
D--5-----------------3---------5------------------------------
A--5---------------------------3------------------------------
E--3----------------------------------------------------------
   That's where they got into a great big hassle
E-------------------------------------------------------------
B-------------------------------------------------------------
G-------------5---------------5-------------------------------
D--5----------3---------------5-------------------------------
A--5--------------------------3-------------------------------
E--3----------------------------------------------------------
   Billy Joe shot a man while robbin his castle
E-------------------------------------------------------------
B-------------------------------------------------------------
G-------------5------------------5----------------------------
D--5----------3------------------5----------------------------
A--5-----------------------------3----------------------------
E--3----------------------------------------------------------
   Bobby Sue took the money and run
E-------------------------------------------------------------
B-------------------------------------------------------------
G----------5------------------5----5-5-5----------------------
D--5-------3------------------5----3-5-3----------------------
A--5--------------------------3------3------------------------
E--3----------------------------------------------------------
   Come on take the money and run
E-------------------------------------------------------------
B-------------------------------------------------------------
G----------5------------------5----5-5-5----------------------
D--5-------3------------------5----3-5-3----------------------
A--5--------------------------3------3------------------------
E--3----------------------------------------------------------
   Come on take the money and run
E-------------------------------------------------------------
B-------------------------------------------------------------
G----------5------------------5----5-5-5----------------------
D--5-------3------------------5----3-5-3----------------------
A--5--------------------------3------3------------------------
E--3----------------------------------------------------------
   Come on take the money and run
E-------------------------------------------------------------
B-------------------------------------------------------------
G----------5------------------5----5-5-5----------------------
D--5-------3------------------5----3-5-3----------------------
A--5--------------------------3------3------------------------
E--3----------------------------------------------------------
   Come on take the money and run




Important: The song above is NOT stored on the Chordie server. The original song is hosted at www.xguitar.com. Chordie works as a search engine and provides on-the-fly formatting. Chordie does not index songs against artists/composers will. To remove this song please click here.

This song is displayed as text-only. Transposing and tuning is only available for chordpro-songs.

Login - add to songbook

Rating click stars to rate

Layout
Accuracy

SHARE PAGE  




You need to log in to post comments