The Joker

Steve Miller

 4/4
  Gtr I
|---------|----------------------|
|---------|----------------------|
|---------|----------------------|
|---------|------------------0h2-|
|---------|---------0-2-3-3------|
|---------|-3-3-(3)--------------|


 DCGC
|--------------------------|--------------------|
|--------------------------|--------------------|
|--------------------------|--------------------|
|-0-0----------------------|---------------0h2--|
|------0-2-3-3-3-3-2-2-----|------0-2-3-3-------|
|----------------------0-2-|-3-3----------------|


 DCGC
       PM--------|
|--------------------------|---------------------|
|--------------------------|---------------------|
|----------------------0-0-|-(0)-----------------|
|-0-0--------------0h2-----|-----------------0h2-|
|------0-2-3-3-3-3---------|--------0h2-3-3------|
|--------------------------|--3--3---------------|

|
| Gtrs III, IV
|--------------------------|---------------------|
|--------------------------|---------------------|
|--------------------------|---------------------|
|--------------------------|---------------------|
|--------------------------|---------------------|
|--------------------------|---------------------|


 DC
           PM------------------|
|--------------------------------|
|--------------------------------|
|--------------------------------|
|-0-0----------------------------|
|----------0-2--3--3-3-3-2-2-0-0-|
|--------------------------------|

|
|-----8s21---8s16\---------------|
|--------------------------------|
|--------------------------------|
|--------------------------------|
|--------------------------------|
|--------------------------------|


 GCDC
                           PM------|
|-------------------|--------------------------||
|-------------------|--------------------------||
|-------------------|----------------------0-0-||
|---------------0h2-|-0-0--------------0-2-----||
|------0h2-3-3------|------0-2-3-3-3-3---------||
|-3-3---------------|--------------------------||


Verse 2
|------------------------|--------------------------|-------------------|
|------------------------|--------------------------|-------------------|
|-(0)--------------------|--------------------------|-------------------|
|--------------------0h2-|-0-0----------------------|---------------0h2-|
|-----------0-2-3-3------|------0-2-3-3-3-3-2-2-----|------0-2-3-3------|
|--3--3-(3)--------------|----------------------0-2-|-3-3---------------|
       PM--------|                                      PM----------------|
|--------------------------|---------------------|---------------------------|
|--------------------------|---------------------|---------------------------|
|----------------------0-0-|-(0)-----------------|---------------------------|
|-0-0--------------0h2-----|-----------------0h2-|-0-0-----------------------|
|------0-2-3-3-3-3---------|--------0h2-3-3------|------0-2-3-3-3-3-2-2-0-0--|
|--------------------------|--3--3---------------|---------------------------|


 GCDC
                           PM----------------|
|-------------------|--------------------------||
|-------------------|--------------------------||
|-------------------|--------------------------||
|---------------0h2-|-0-0----------------------||
|------0h2-3-3------|------0-2-3-3-3-3-2-2-0-0-||
|-3-3---------------|--------------------------||


Chorus 1
 GC
  Gtr I              
|-------------------------------------|
|----0--0-------------1---1-----------|
|----0--0-------0-0-0-0-----------0-0-|
|----0----------0-0-2-2-2----0h=2-----|
|----------0h=2-----3---3-------------|
|-3-----------------------------------|

|
| Gtr II
|-------------------------------------|
|-------------------------------------|
|-------------------------------2-----|
|---------------2---------2-(2)-----2-|
|---(2)-2-(2)-------0---0-------------|
|-0-----------------------------------|


 GCGC
|-------------------------------|---------------------------------|
|---0---------0---1-------1-----|-----0---------------1-----------|
|-------------0---0-------0---0-|---0-----------0-------------0---|
|-----------0-------------------|-------------0---2------0h=2-----|
|------0h=2-----3---2-(2)---0---|--------0h=2-----3---------------|
|-3-----------------------------|-3-------------------------------|

|
|-------------------------------|---------------------------------|
|---------------------------2-2-|---------------------------------|
|-----------1-1-----2-(2)---2-2-|-------------------2-2-(2)-2---2-|
|---------2-2-2-----2-(2)-2-----|-----------2---2---2-2-(2)-2---2-|
|---2-(2)-------0-0-------------|---2-2-(2)---2---0-0-0-(0)-------|
|-0-----------------------------|-0-------------------------------|


 DCGC
|-------2-2-------------|-------------------------------------|
|-3-----3-3-x-----------|---0-------------1-1-----------------|
|-2---2-2-2-x-----0---0-|-----------0-----0-0--------0--------|
|-0-------------2-0h2---|---------0------------0h=2-----------|
|-------------3-3-------|-----0h2-----3-----------------------|
|-----------------------|-3-------------------------------3---|

|
|-------------------0---|-----0-----0-------------------------|
|-------------2-2-0-2---|-----0-------------------------------|
|---4---4-4-4-2-2-2-2---|-----1---1---------------2-(2)-2---2-|
|---4---4-4-4-2-2-2-2---|---2-2---2-----2---2-(2)-2-(2)-2---2-|
|-2-----2-2---0---------|---2---------0---0-------------------|
|-----------------------|-0-----------------------------------|


 GC
|--------------------------------|
|---0-------0-----1-1------------|
|-----------------0-0-------0----|
|---------0---(2)-----0h==2------|
|-----0h2------3-----------------|
|-3------------------------------|

|
|--------------------------------|
|--------------------------------|
|---1---1-----------2---2s4-2-2--|
|---2---2---2-----2-2-------2----|
|--------------0------0-----0----|
|-0---0--------------------------|


 GCDC
|-----------------------------------|-------2-------------------------|
|---0-0-------0---------------------|-3-3-3-3---3-3-------------------|
|---0-0-----------0-----------------|-2-2-2-2---0-2---0-0-------0-0---|
|-----------0-------2---0h2---0-2---|-0-0-0-----------2-2-0h2---------|
|-------0h2-----3-------------------|---------------3-----------------|
|-3---------------------------------|---------------------------------|

|
|-----------------------------------|---------------------------------|
|-----------------------------------|-----------------2---0---2-------|
|---1-1---1-------2-2-------2-----2-|-4-4---4-4---4---2---2-----2---2-|
|---2-2---2---2-----2-2-2---2-------|-4-4---4-4---4---2---2-----2---2-|
|-------2---2---0-------0-----------|-2-2---2-2---2-0-----------------|
|-0---------------------------------|---------------------------------|


 GC
|------------------------------------|
|---0-0-0-------------1-1------------|
|-----0---------0-------------0-0----|
|-----0-------0-0-2-2-----0h2--------|
|---------0h2-----3-3----------------|
|-3----------------------------------|

|
|-0-----0-0-0-0-0-0---0-0-0-0---0----|
|-0-----0-0-0-0-0-2---2-2-2-2---2----|
|-1-----1-1-1-1-1-2---2-2-2-2---2----|
|-2-----2-2-2-2-2-2---2-2-2-2---2----|
|-2-----2-2-2-2-2-0---0-0-0-0---0----|
|-0-----0-0-0-0-0--------------------|


 GC
|-----------------------------------|
|---0---0-----0-0-----1-------1---0-|
|-------------0-------0-------0---0-|
|---------------------------------0-|
|---------0h2-----3-----2-(2)---0---|
|-3---3-----------------------------|

|
|-0-0-0-0-0-0---0-0-0-0-0--0--0-0-0-|
|-0-0-0-0-0-0---0-2-2-2-2--2--2-2-2-|
|-1-1-1-1-1-1---1-2-2-2-2--2--2-2-2-|
|-2-2-2-2-2-2---2-2-2-2-2--2--2-2-2-|
|-2-2-2-2-2-2---2-0-0-0-0--0--0-0-0-|
|-0-0-0-0-0-0---0-------------------|


 GCDDsusDC
|---------------------------------|---2-----2-3-2-2---0-------------|
|---0-0-0---------1---1-1---------|-3---3-3-3-3-3-3---1-1-1-----0-0-|
|---0-0-----------0---0-0---------|-2---2---2-2-2-2---0-0-0-----0-0-|
|-----0-------0---2---2-2-0h2-----|-0---0---0-0-0-0-2-------0h2-----|
|---------0-2-----3---3-3-------3-|-----------------3---------------|
|-3-------------------------------|---------------------------------|

|
|-0-0---0-0---0-0-0-0-----0---0---|-----------------0---0---0-0-0-0-|
|-0-0---0-0---0-0-2-2-----2---2---|-----------------2---2---0-2-2-2-|
|-1-1---1-1---1-1-2-2-----2---2---|-4---4---4-4-----2---2---2-2-2-2-|
|-2-2---2-2---2-2-2-2-----2---2---|-4---4---4-4-----2---2---2-2-2-2-|
|-2-2---2-2---2-2-0-0-----0---0---|-2---2---2-2-----0---0---0-0-0-0-|
|-0-0---0-0---0-0-----------------|---------------------------------|


 GCGC
|---------------------------------|----------------------------------|
|---0-0-0-----------1---1---------|---0-0-------(0)---1---1----------|
|-----0-0-----0---0-0-0---0-0---0-|---0-0-----0-----0-0-0-------0-0--|
|-----0-------0---2-------2-0---2-|-----------0-----2-0-2---0h2------|
|---------0h2-----3-----------3---|-------0h2-------3----------------|
|-3-------------------------------|-3--------------------------------|

|
|-0-0-0-0-0-0---0-0---0-0-0-0---0-|-----------------0---0-0-0-0---0--|
|-0-0-0-0-0-0---0-2---2-2-2-2---2-|-----------------2---2-2-0-2---2--|
|-1-1-1-1-1-1---1-2---2-2-2-2---2-|-1---1-1-1-1--1--2---2-2-2-2---2--|
|-2-2-2-2-2-2---2-2---2-2-2-2---2-|-2---2-2-2-2--2--2---2-2-2-2---2--|
|-2-2-2-2-2-2---2-0---0-0-0-0---0-|-2---2-2-2-2--2--0---0-0-0-0---0--|
|-0-0-0-0-0-0---0-----------------|-0---0-0-0-0--0-------------------|


 GCDDsus4
|---------------------------------|-------2-3-3-----3-------|
|---0---0-----------1-1-1---------|---3-3-3-3-3-3-3-3-3-3-3-|
|---0-0-0-------0---0-0-----------|-2-2-2-2-2-2-2-2-2-2-2-2-|
|-------------0---2---2---0h2p0---|-0-----------------------|
|---------0h2-----3-------------3-|-------------------------|
|-3-------------------------------|-------------------------|

|
|-0---0-0-0-0-----0-----0---0-0-0-|-------------------------|
|-0---0-0-0-0-----2-----2---2-2-2-|-------4-5-5-5-5-5-5-5-5-|
|-1---1-1-1-1-----2-----2---2-2-2-|-4-4-4-4-4-4-4-4-4-4-4-4-|
|-2---2-2-2-2-----2-----2---2-2-2-|-4-4-4-4-4-4-4-4-4-4-4-4-|
|-2---2-2-2-2-----0-----0---0-0-0-|-2-2-2-2-2-2-2-2-2-2-2-2-|
|-0---0-0-0-0---------------------|-------------------------|
|-3-3---3-(3)-3-3-3---3--------------||
|-3-3-3-3-(3)-3-3-3---3--------------||
|-2-2-2-2-(2)-2----------------------||
|------------------------------------||
|------------------------------------||
|------------------------------------||

|
|-------------------0----------------||
|-------4-(4)-4-----1s3-3-3----------||
|---4---4-(4)-4-4-4---------2-1------||
|---4-4-4-(4)-4-4-4-------------2-1--||
|-2-------------2--------------------||
|------------------------------------||


Guitar Solo 1
 GCDC
  Gtr I                                       
|------------------------------|----------------------------------|
|------------------------------|----------------------------------|
|------------------------------|----------------------------------|
|--------------------------0h2-|---0--0---------------------------|
|--------------0-2---3--3------|---------0-2--3--3-3--3--2-2------|
|--3-----3-(3)-----------------|------------------------------0-2-|

|
| Gtrs III, IV
| ~~~~~~~~~~~~~~~~~~~~~~~~~~~~~~~
|-13s=15-----------(15)--------|-(15)--------15s13----------------|
|------------------------------|---------------------15s13--------|
|------------------------------|-----------------------------15---|
|------------------------------|-----------------------------15---|
|------------------------------|----------------------------------|
|------------------------------|----------------------------------|

|
| Gtr II
| >
|------------------------------|----------------------------------|
|------------------------------|----------------------------------|
|------------------------------|----------------------------------|
|------------------------------|----------------------------------|
|------------------------------|----------------------------------|
|-(0)--------------------------|--(0)-----------------------------|


 GC
|--------------------------------------------|
|--------------------------------------------|
|--------------------------------------------|
|----------------------------------------0h2-|
|-----------------------0-2---3--3-----------|
|-----3--3-----------------------------------|

|
| ~~~~
|---------------------------(15)---(15)\-----|
|--------------------15-----(15)---(15)\-----|
|-15s13-----/15-(15)-------------------------|
|-------15/----------------------------------|
|--------------------------------------------|
|--------------------------------------------|

|
|--------------------------------------------|
|--------------------------------------------|
|--------------------------------------------|
|--------------------------------------------|
|--------------------------------------------|
|--------------------------------------------|


 DC
                     PM------------|
|-------------------------------------------------|
|-------------------------------------------------|
|--------------------------------------------0--0-|
|--0-----0-----------------------------0h=2-------|
|--------------------0--2--3--3--3--3-------------|
|-------------------------------------------------|

|
|-------------------------------------------------|
|-------------------------------------------------|
|-------------------------------------------------|
|-15s13----15s13----15s13----15s13----15-15-15-15-|
|-------15-------15-------15-------15-------------|
|-------------------------------------------------|


 GCDC
|---------------------------------|------------------------------------------------|
|---------------------------------|------------------------------------------------|
|---------------------------------|------------------------------------------------|
|----------------------------0h=2-|-----0--0---------------------------------------|
|-------------0h=2---3---3--------|--------------0--2--3-3--3-3-----2-2------------|
|---3--3--------------------------|--------------------------------------0-----2---|

|
| ~~ ~~
|---------------------------------|------------------------------------------------|
|-----15--------------------------|-------15-15----15s17---15----------------------|
|-/15-----15s13-------------------|-13s15-------15-15s17--------14s13------13s15---|
|---------------15-(15)-15--15-15-|-------------------------------------15---------|
|---------------------------------|------------------------------------------------|
|---------------------------------|------------------------------------------------|


 GC
|----------------------------------------|
|----------------------------------------|
|----------------------------------------|
|-----------------------------------0h=2-|
|--------------0-2---3---3---------------|
|---3---3--------------------------------|

|
|---------(15)-----(15)-15s13s15---------|
|------15------------------------15------|
|-(15)--------------------------------14s|
|----------------------------------------|
|----------------------------------------|
|----------------------------------------|


 DC
               PM------------|
|-------------------------------------------||
|-------------------------------------------||
|--------------------------------------0--0-||
|--0--0--------------------------0h=2-------||
|--------------0--2--3--3--3--3-------------||
|-------------------------------------------||

|
|-------------------------------------------||
|-------------------------------------------||
|-13----------------------------------------||
|----15-15s13----15s13----15s13----15s13----||
|-------------15-------15-------15-------15-||
|-------------------------------------------||


Verse 3
 GCDCGC
|---------------------------|--------------------------|-------------------|
|---------------------------|--------------------------|-------------------|
|---------------------------|--------------------------|-------------------|
|-----------------------0h2-|-0-0----------------------|---------------0h2-|
|-----------0-2---3--3------|------0-2-3-3-3-3-2-2-----|------0-2-3-3------|
|--3--3-(3)-----------------|----------------------0-2-|-3-3---------------|

|
|---------------------------|--------------------------|-------------------|
|---------------------------|--------------------------|-------------------|
|---------------------------|--------------------------|-------------------|
|-13s15---------(15)--------|--------------------------|-------------------|
|---------------------------|--------------------------|-------------------|
|---------------------------|--------------------------|-------------------|


 DCGCDC
       PM--------|                                      PM------------------|
|--------------------------|---------------------|-----------------------------|
|--------------------------|---------------------|-----------------------------|
|----------------------0-0-|-(0)-----------------|-----------------------------|
|-0-0--------------0h2-----|-----------------0h2-|-0-0-------------------------|
|------0-2-3-3-3-3---------|--------0h2-3-3------|------0-2-3--3-3-3-2-2--0-0--|
|--------------------------|--3--3---------------|-----------------------------|

|
|--------------------------|---------------------|----------8s20-----8s==17s===|
|--------------------------|---------------------|-----------------------------|
|--------------------------|---------------------|-----------------------------|
|--------------------------|---------------------|-----------------------------|
|--------------------------|---------------------|-----------------------------|
|--------------------------|---------------------|-----------------------------|


 G
                           PM------|
|-------------------|--------------------------||
|-------------------|--------------------------||
|-------------------|----------------------0-0-||
|---------------0h2-|-0-0--------------0-2-----||
|------0h2-3-3------|------0-2-3-3-3-3---------||
|-3-3---------------|--------------------------||

|
|-7-----------------|--------------------------||
|-------------------|--------------------------||
|-------------------|--------------------------||
|-------------------|--------------------------||
|-------------------|--------------------------||
|-------------------|--------------------------||


Chorus 2
 GC
  Gtr I            
|-------------------------------|
|---------0-0-0-----------------|
|---(0)---0-0-0---0-0-0-0-0-0-0-|
|---(0)---0-0-0---2-2-2-2-2-2-2-|
|-----------------3-3-3-3-3-3-3-|
|-3-----------------------------|

|
| Gtr II
|-0-----0-0-0---0-0-0-0-0-0-----|
|-0-----0-0-0---0-2-2-2-2-2-----|
|-1-----1-1-1---1-2-2-2-2-2-----|
|-2-----2-2-2---2-2-2-2-2-2-----|
|-2-----2-2-2---2-0-0-0-0-0-----|
|-0-----0-0-0---0---------------|


 GCGC
|-----------------------0-------|-------------------0------|
|-0-0-0-0-0---0-0-------1-------|-0-0-----0-0-0-----1------|
|-0-0-0-0-0---0-0-0-----0---0-0-|-0-0---0-0-0-0-0---0---0--|
|-0-0-0-0-0---0-0-2-2-2-2---2---|-0-----0-0-0-0-2-2-2---2--|
|-x-------x-------3-3---3---3---|-x-------x-x---3-3-----3--|
|-3-------3---------------------|-3-------3-3--------------|

|
|-0---0-0-0-0-0-0-0-0-0-0-------|-0---0-0-0-0---0---0-0----|
|-0---0-0-0-0-0-0-2-2-2-2-------|-0---0-0-0-0---2---2-2----|
|-1---1-1-1-1-1-1-2-2-2-2-4-2---|-1---1-1-1-1---2---2-2----|
|-2---2-2-2-2-2-2-2-2-2-2---2---|-2---2-2-2-2---2---2-2----|
|-2---2-2-2-2-2-2-0-0-0-0---0---|-2---2-2-2-2---0---0-0----|
|-0---0-0-0-0-0-0---------------|-0---0-0-0-0--------------|


 DCGC
|---2-2---------------------|-----------------------0---------|
|-3-3-3-3-3-3---1-----1-1-1-|-------0-------0---1-------------|
|-2-2-2-2-2-2---0-----0-0-0-|---(0)---------------0-------0-0-|
|-0-----0-0-0---2-2-2-2-2-2-|-------------0-----------0h2-----|
|---------------3-3-3-3-3-3-|---------0h2-----3---------------|
|---------------------------|-3-------------------------------|

|
|---------------0-0---0-0---|-0--0--0-0-0-0-0-0---0-0-0-------|
|---------------2-2---0-2---|-0--0--0-0-0-0-0-2---2-2-2-------|
|-4-4---4-4---4-2-2---2-2---|-1--1--1-1-1-1-1-2---2-2-2-4-2---|
|-4-4---4-4---4-2-2---2-2---|-2--2--2-2-2-2-2-2---2-2-2---2---|
|-2-2---2-2---2-0-0---0-0---|-2--2--2-2-2-2-2-0---0-0-0---0---|
|---------------------------|-0--0--0-0-0-0-0-----------------|


 GC
|-----------------------------|
|---0-0-------0---1-1---------|
|---0-------------0-0-----0---|
|-----------0---------0h2-----|
|-------0h2-----3-------------|
|-3-------------------------3-|

|
|-0---0-0-0-0-0-0-0-0-0---0-0-|
|-0---0-0-0-0-0-2-2-2-2-3-2-2-|
|-1---1-1-1-1-1-2-2-2-2-4-2-2-|
|-2---2-2-2-2-2-2-2-2-2-2-2-2-|
|-2---2-2-2-2-2-0-0-0-0-0-0-0-|
|-0---0-0-0-0-0---------------|


 GC
|-------------------------0-------0-|
|---0-----0-------0-----------------|
|-------------------------------0---|
|---------------0---2-2-----0-2-----|
|-----------0-2-----3---3-----------|
|-3---(3)---------------------------|

|
|-----------0-0-----0---0-0-0-0-0---|
|-----------0-0-----2---2-2-0-0-2---|
|-----------1-1-----2---2-2-2-2-2---|
|-2---------2-2-----2---2-2-2-2-2---|
|-2---------2-2-----0---0-0-0-0-0---|
|-0---------0-0---------------------|


 DCGC
|-------2-2-------------------|---------------------0----------|
|-3-----3-3-3-------1---------|-------0-------0----------------|
|-2-2-2-2-2-2-----0-------0-0-|---(0)---------0---0-------0-0--|
|-0-0-0-------0-------0h2-----|---(0)-------0-----2---0-2------|
|---------------3-------------|---------0-2-----3--------------|
|-----------------------------|-3------------------------------|

|
|---------------0-0---0-0-0---|-0-----0-0-0---0-0-0-0-0-0------|
|---------4-----2-2---0-0-2---|-0-----0-0-0---0-2-2-2-2-2------|
|-4-4-4-4-4-----2-2---2-2-2---|-1-----1-1-1---1-2-2-2-2-2------|
|-4-4-4-4-4-----2-2---2-2-2---|-2-----2-2-2---2-2-2-2-2-2------|
|-2-2-2-2-2-----0-0---0-0-0---|-2-----2-2-2---2-0-0-0-0-0------|
|-----------------------------|-0-----0-0-0---0----------------|


 GCGC
|-------------------0---------|-------------------0-------|
|-----0-----------1-----------|---0---0---------1---------|
|-----------------0-------0-0-|---0---0---------0---0-----|
|---0-------0-0-2-2---0h2-----|-------------0-------2-2-2-|
|-------0h2-----3-------------|---------0h2---3-------3-3-|
|-3---------------------------|-3---3---------------------|

|
|-0-0-0-0-0-0-0-0-0-0-0-------|-0---0-0-0-0---0-----0-0---|
|-0-0-0-0-0-0-0-2-2-2-2-------|-0---0-0-0-0---2-----2-2---|
|-1-1-1-1-1-1-1-2-2-2-2-4-2---|-1---1-1-1-1---2-----2-2---|
|-2-2-2-2-2-2-2-2-2-2-2---2---|-2---2-2-2-2---2-----2-2---|
|-2-2-2-2-2-2-2-0-0-0-0---0---|-2---2-2-2-2---0-----0-0---|
|-0-0-0-0-0-0-0---------------|-0---0-0-0-0---------------|


 DC
|-2-----2----------------------|
|-3-3-3-3---3-3---3-1----------|
|-2-2-2-2---2-2-0-0-0-----0-0--|
|-0-0-0-0---0-0-2-----0h2------|
|---------------3--------------|
|------------------------------|

|
|---------------0-0---0-0------|
|---------------2-2---0-2------|
|-4-4---4-4---4-2-2---2-2------|
|-4-4---4-4---4-2-2---2-2------|
|-2-2---2-2---2-0-0---0-0------|
|------------------------------|


 GDGC
|-------------------0---------|-----------------------------|
|-----0-------0---1-----------|---0-0-------------1---------|
|---0-0-------0---0---0---0-0-|---0-------------0-------0---|
|---0-------0---------0h2-----|-----------0---------0h2-----|
|-------0h2-----3-------------|-------0h2-----3-------------|
|-3---------------------------|-3---------------------------|

|
|-0-0-0-0-0-0-0-0-0-0-0-------|-0---0-0-0-0-0-0-0-0-0---0-0-|
|-0-0-0-0-0-0-0-2-2-2-2-------|-0---0-0-0-0-0-2-2-2-2-3-2-2-|
|-1-1-1-1-1-1-1-2-2-2-2-4-2---|-1---1-1-1-1-1-2-2-2-2-4-2-2-|
|-2-2-2-2-2-2-2-2-2-2-2---2---|-2---2-2-2-2-2-2-2-2-2-2-2-2-|
|-2-2-2-2-2-2-2-0-0-0-0---0---|-2---2-2-2-2-2-0-0-0-0-0-0-0-|
|-0-0-0-0-0-0-0---------------|-0---0-0-0-0-0---------------|


 GCDC
|-----------------------------------|-2-2-2-2-2---------------------||
|---0---0-------0---1---1-----------|-3-3-3-3-3-------1---1---------||
|---0-0-0-----------0-0-------------|-2-2-2-2-2-------0-0-------0-0-||
|-----0-------0-----------0h2p==0---|-0-0-0-0-0---------2---0h2-----||
|---------0h2-----3---------------3-|-----------0h2-3---------------||
|-3---------------------------------|-------------------------------||

|
|---------0-0-----0---0-0-0---0---0-|---------------0---0---0-0-0---||
|---------0-0-----2---2-2-0---0---2-|---------4-----2---2---0-0-2---||
|---------1-1-----2---2-2-2---2---2-|-4-4-4-4-4-----2---2---2-2-2---||
|-2-------2-2-----2---2-2-2---2---2-|-4-4-4-4-4-----2---2---2-2-2---||
|-2-------2-2-----0---0-0-0---0---0-|-2-2-2-2-2-----0---0---0-0-0---||
|-0-------0-0-----------------------|-------------------------------||


Guitar Solo 2
 GCGC
     Gtr I                                                         
|--------------------------------------------|-------------------------------------------|
|-------0-0-0-------------1-1----------------|------0---0-----0-0-----1-------1--------0-|
|---------0---------0----------------0-----0-|----------------0-------0-------0--------0-|
|---------0-------0-0-2-2------0h=2----------|-----------------------------------------0-|
|-------------0h2-----3-3--------------------|------------0h2-----3-----2-(2)----0-------|
|-----3--------------------------------------|---3----3----------------------------------|

|
| Gtr II
|-----0-----0-0-0-0-0-0---0-0--0--0--------0-|---0--0-0-0-0-0---0-0-0-0-0--0--0--0-----0-|
|-----0-----0-0-0-0-0-2---2-2--2--2--------2-|---0--0-0-0-0-0---0-2-2-2-2--2--2--2-----2-|
|-----1-----1-1-1-1-1-2---2-2--2--2--------2-|---1--1-1-1-1-1---1-2-2-2-2--2--2--2-----2-|
|-----2-----2-2-2-2-2-2---2-2--2--2--------2-|---2--2-2-2-2-2---2-2-2-2-2--2--2--2-----2-|
|-----2-----2-2-2-2-2-0---0-0--0--0--------0-|---2--2-2-2-2-2---2-0-0-0-0--0--0--0-----0-|
|-----0-----0-0-0-0-0------------------------|---0--0-0-0-0-0---0------------------------|

|
| Gtrs III, IV
| ~~ ~~~~~~~~~ ~~~
|-13s15-----------------------15s13----13s15-|-(15)-----------------------15s13----13s15-|
|-----------------------------------15-------|----------------------------------15-------|
|--------------------------------------------|-------------------------------------------|
|--------------------------------------------|-------------------------------------------|
|--------------------------------------------|-------------------------------------------|
|--------------------------------------------|-------------------------------------------|


 GC
|------------------------------------------------|
|------0-0-0---------1---1-1---------------------|
|------0-0-----------0---0-0---------------------|
|--------0-------0---2---2-2--0h2----------------|
|------------0-2-----3---3-3----------3----------|
|---3--------------------------------------------|

|
|---0--0---0-0---0-0-0-0------0----0-------------|
|---0--0---0-0---0-0-2-2------2----2-------------|
|---1--1---1-1---1-1-2-2------2----2-------------|
|---2--2---2-2---2-2-2-2------2----2-------------|
|---2--2---2-2---2-2-0-0------0----0-------------|
|---0--0---0-0---0-0-----------------------------|

|
|~~~~~~
|-(15)-----------------------15p==13-------------|
|------------------------------------15----------|
|---------------------------------------13s15----|
|------------------------------------------------|
|------------------------------------------------|
|------------------------------------------------|


 DC
|----2-----------2-3--2--2-------0--------------------|
|--3----3--3-----3-3--3--3-------1--1-1-----------0-0-|
|--2----2--------2-2--2--2-------0--0-0-----------0-0-|
|--0----0--------0-0--0--0-----2------------0h=2------|
|------------------------------3----------------------|
|-----------------------------------------------------|

|
|------------------------------0----0-------0--0--0-0-|
|------------------------------2----2-------0--2--2-2-|
|--4----4--------4-4-----------2----2-------2--2--2-2-|
|--4----4--------4-4-----------2----2-------2--2--2-2-|
|--2----2--------2-2-----------0----0-------0--0--0-0-|
|-----------------------------------------------------|

|
|-----------------------------------------------------|
|------15-15---------15-15-13h15---15-----------------|
|-15---------13s15---------13S15--------13s15s13------|
|------------------------------------------------15---|
|-----------------------------------------------------|
|-----------------------------------------------------|


 GCGC
|--------------------------------------------|----------------------------------------------|
|-------0-0-0-----------1---1----------------|------0-0-------(0)---1---1-------------------|
|---------0-0-----0---0-0-0----0--0--------0-|------0-0-----0-----0-0-0----------0-----0----|
|---------0-------0---2--------2--0--------2-|--------------0-----2-0-2----0h=2-------------|
|-------------0h2-----3--------------3-------|----------0h2-------3-------------------------|
|-----3--------------------------------------|---3------------------------------------------|

|
|-----0-0-0-0-0-0---0-0---0-0--0--0--------0-|--------------------0---0-0--0--0--------0----|
|-----0-0-0-0-0-0---0-2---2-2--2--2--------2-|--------------------2---2-2--0--2--------2----|
|-----1-1-1-1-1-1---1-2---2-2--2--2--------2-|---1----1-1-1-1--1--2---2-2--2--2--------2----|
|-----2-2-2-2-2-2---2-2---2-2--2--2--------2-|---2----2-2-2-2--2--2---2-2--2--2--------2----|
|-----2-2-2-2-2-2---2-0---0-0--0--0--------0-|---2----2-2-2-2--2--0---0-0--0--0--------0----|
|-----0-0-0-0-0-0---0------------------------|---0----0-0-0-0--0----------------------------|

|
|-13s15-----------------------15s13s15-13s15-|-(15)-----------------------15s13s15-13s15----|
|--------------------------------------------|----------------------------------------------|
|--------------------------------------------|----------------------------------------------|
|--------------------------------------------|----------------------------------------------|
|--------------------------------------------|----------------------------------------------|
|--------------------------------------------|----------------------------------------------|


 GCD5Dsus4
|-------------------------------------------|---------2-3--------3--------3---------|
|------0---0-----------1-1-1----------------|-----3-3-3-3--------3--3-3---3--3-3--3-|
|------0-0-0-------0---0-0------------------|---2-2-2-2-2--------2--2-2---2--2-2--2-|
|----------------0---2---2----0h=2p=0-------|---0-----------------------------------|
|------------0h2-----3-----------------3----|---------------------------------------|
|---3---------------------------------------|---------------------------------------|

|
|---0----0-0-0-0-----0-----0-----0--0--0----|---------------------------------------|
|---0----0-0-0-0-----2-----2-----2--2--2----|---------4-5--------5--5-5---5--5-5--5-|
|---1----1-1-1-1-----2-----2-----2--2--2----|---4-4-4-4-4--------4--4-4---4--4-4--4-|
|---2----2-2-2-2-----2-----2-----2--2--2----|---4-4-4-4-4--------4--4-4---4--4-4--4-|
|---2----2-2-2-2-----0-----0-----0--0--0----|---2-2-2-2-2--------2--2-2---2--2-2--2-|
|---0----0-0-0-0----------------------------|---------------------------------------|

|
| ~~~~ ~~~~~~~~~~~~~~~~~
|-(15)-----------------------13s15s13-15p13-|-/10---------(10)-(10)-----(10)-----10-|
|-------------------------------------------|-/10---------(10)-(10)-----(10)--------|
|-------------------------------------------|-/10---------(10)-(10)-----(10)--------|
|-------------------------------------------|---------------------------------------|
|-------------------------------------------|---------------------------------------|
|-------------------------------------------|---------------------------------------|
|---3--3---3-(3)-3--3-3---3---------------------||
|---3--3-3-3-(3)-3--3-3---3---------------------||
|---2--2-2-2-(2)-2------------------------------||
|-----------------------------------------------||
|-----------------------------------------------||
|-----------------------------------------------||

|
|-----------------------------------------------||
|----------4-(4)----4-------------4-------------||
|---4----4-4-(4)----4---------2s4---4s2-1-------||
|---4----4-------4--4---------------------2-1h2-||
|---2------------2------------------------------||
|-----------------------------------------------||

|
|-(10)-------------10---(10)\-------------------||
|-----------------------------------------------||
|-----------------------------------------------||
|-----------------------------------------------||
|-----------------------------------------------||
|-----------------------------------------------||


Outro
 GCDCGC
  Gtr I                                                       
|----------------------|--------------------------|-------------------|
|----------------------|--------------------------|-------------------|
|----------------------|--------------------------|-------------------|
|------------------0h2-|-0-0----------------------|---------------0h2-|
|---------0-2-3-3------|------0-2-3-3-3-3-2-2-----|------0-2-3-3------|
|-3-3-(3)--------------|----------------------0-2-|-3-3---------------|


 DCGCDC
       PM--------|                                      PM----------------|
|--------------------------|---------------------|---------------------------|
|--------------------------|---------------------|---------------------------|
|----------------------0-0-|-(0)-----------------|---------------------------|
|-0-0--------------0h2-----|-----------------0h2-|-0-0-----------------------|
|------0-2-3-3-3-3---------|--------0h2-3-3------|------0-2-3-3-3-3-2-2-0-0--|
|--------------------------|--3--3---------------|---------------------------|


 GCDC
|------------------------|-----3p2-----------------|
|------------------------|---------------1---------|
|------------------------|---------2-----0-----0-0-|
|--------------0h2p0-(2)-|-0-0---------2---0h2-----|
|------0-2-3-3--------3--|-----------3-------------|
|-3-3--------------------|-------------------------|


N.C.(G) C D C
|-------------------|------------------------|
|-------------------|------------------------|
|-------------------|----------------------0-|
|---------------0h2-|-0-0--------------0h2---|
|------0h2-3-3------|------0h2-3-3-3-3-------|
|-3-3---------------|------------------------|


 GCDC
|---------------------|-----------------------------|
|---------------------|-----------------------------|
|-(0)-----------------|-----------------------0-0---|
|-----------------0h2-|-0-0-0-------------0h2-------|
|--------0h2-3-3------|-------0-2-3-3-3-3-----------|
|--3--3---------------|-----------------------------|


 GCDC
  Gtr I                           
|---------------------|---------------------------|
|---------------------|---------------------------|
|-(0)-----------------|-----------------------0-0-|
|-----------------0h2-|-0-0--------------0h2------|
|--------0h2-3-3------|------0h2-3-3-3-3----------|
|--3--3---------------|---------------------------|

|
| Gtrs III, IV
|---------------------|------------------7s==19---|
|---------------------|---------------------------|
|---------------------|---------------------------|
|---------------------|---------------------------|
|---------------------|---------------------------|
|---------------------|---------------------------|


 GCDC
|----------------------|-----------------------*|
|----------------------|-----------------------*|
|-(0)------------------|-----------------------*|
|------------------0h2-|-0-0-0-----------------*|
|---------0h2-3-3------|-------0-2-3-3-3-3-2-0-*|
|--3--3----------------|-----------------------*|

|
|--7s17\---------------|-----------------------*|
|----------------------|-----------------------*|
|----------------------|-----------------------*|
|----------------------|-----------------------*|
|----------------------|-----------------------*|
|----------------------|-----------------------*|



C D D5 Dsus4 G
variations - click chord images
Transpose chords:
Tuning:
Cool service:
View: Size:
A  A  A
Rating:
Layout:
  • Currently 3.5/5 Stars.
  • 1
  • 2
  • 3
  • 4
  • 5
 
Accuracy:
  • Currently 3/5 Stars.
  • 1
  • 2
  • 3
  • 4
  • 5
 
click stars to rate
Chordie recommends:
Get acoustic guitar lessons and electric guitar lessons at JamPlay.com
Songbook:
Login to add this song to your songbook
Support the artist
Preview/buy this song
MSN Music
Why this non-profit ad?

 
login to add comments/video/corrections