Chordie logo

The Animal    Steve Vai



i saw that no one had tabbed this so i did.
ive just got the intro at the moment but im
working on it

e-------------------------------
b-------------------------------
g-------------------------------
d-------------------------------
a-------------3-------5p7h7h7h7-
e-----3---5------5--------------



e----------------------
b----------------------
g----------------------
d----------------------
a-------------3--------
e-----3---5------5---4b





e-------------------------
b----4/12-----------------X3
g-------------------------
d-------------------------
a-------------------------
e-------------------------



Important: The song above is NOT stored on the Chordie server. The original song is hosted at www.xguitar.com. Chordie works as a search engine and provides on-the-fly formatting. Chordie does not index songs against artists/composers will. To remove this song please click here.

This song is displayed as text-only. Transposing and tuning is only available for chordpro-songs.

Login - add to songbook

Rating click stars to rate

Layout
Accuracy

SHARE PAGE  

You need to log in to post comments