Guitar Tabs, Chords and Lyrics


Rescue Me or Bury Me    Steve Vai



Steve Vai - Rescue Me Or Bury Me.


||---0-------0-----0-----|---------------------|---------0-------|
||-0---0-------0-----0---|-------------------3-|-3/5p3-----3-----|
||-4-----4-------------4-|-0---------------2---|p0-----5-----5-4-|
||-7-------7-----7-------|-0-----7\\5-----0-----|-----------------|
||-5---------------------|-5-------------------|-----------------|
||-3---------------------|-3-3/5-----0h3-------|-----------------|


----0-----------0---------||-------0-------------0-----------------|
--3---3-------3---3-------||-----3---3---------1---1---------------|
--------0---0-------0-----||---0-------0-----0-------0-------------|
5---------4-----------4h5-||\\3-----------3-2-----------2-3-2h3p2p0-|
--------------------------||---------------------------------------|
--------------------------||---------------------------------------|


--3---0---------|-----0-----------------|---------|
--3-----3-------|-3-----3---------------|-----3---|
--0-------0-----|-0-------0-------------|-----0---|
------------0---|-0---------0-----------|-----2---|
3-3-----------3-|-2-----------2-3-2h3p2p|-0---0---|
----------------|-----------------------|---------|

                                      nh      nh      nh      nh
0---------------------|--v0---0-|-----5---------------7-------12---|
--3-------------------|--v1---1-|-----5-------5-------7-------12---|
----0-----------------|--v2p0-0-|-----5-------5-------7-------12---|
------2---------------|--v3---3-|-------------5--------------------|
--------0-3-2h3p2p0---|---------|-2/3---3-5/7---7-5-5---5/7/8----8-|
--------------------3-|-1-------|----------------------------------|

      nh          nh         nh        nh         nh      nh
------7---------------------------------------|-----------7---------||
------7-----------12--------------------------|---------------------||
------7----------------------12---------------|---7---------------0-||
---------------------------------------12-----|---------------------||
10-10---8-------------------------------------|---------------------||
----------10-9/10----12\\10-8----10\\8-7----8\\7-|-5---7\\5p3---5\\3-1---||



Important: The song above is NOT stored on the Chordie server. The original song is hosted at www.xguitar.com. Chordie works as a search engine and provides on-the-fly formatting. Chordie does not index songs against artists'/composers' will. To remove this song please click here.

This song is displayed as text-only. Transposing and tuning is only available for chordpro-songs.

Login - add to songbook

Rating click stars to rate

Layout
Accuracy

SHARE PAGE  




You need to log in to post comments