eToCache5 = ""; ?> Lookin' Out the Window by Stevie Ray Vaughan - guitar chords, guitar tabs and lyrics - chordie

Lookin' Out the Window

Stevie Ray Vaughan

 AE
E|-5--5--5----5--5--5--5--5--5--5--5--5--5--5--5---5--5--5--5--5--5--5-
B|-5--5--5----5--5--5--5--5--5--5--5--5--5--5--5---5--5--5--5--5--5--5-
G|-6--7--8-----------------------------------------7--7--7--7--7--7--7-
D|---------------------------------------------------------------------
A|---------------------------------------------------------------------
E|---------------------------------------------------------------------


 A
E|-5--5--5--5---5--5--5--5--5--5--5--5--5--5--5--5--5--5--5--5--5--5--5
B|-5--5--5--5---5--5--5--5--5--5--5--5--5--5--5--5--5--5--5--5--5--5--5
G|-7--7--7--7---6--6--6--6--6--6--6--6--6--6--6--6--6--6--6--6--6--6--6
D|---------------------------------------------------------------------
A|---------------------------------------------------------------------
E|---------------------------------------------------------------------


 E
E|-5--5--5--5--5---5--5--5--5--5--5--5--5--5--5--5--5---5--5--5--5--5--
B|-5--5--5--5--5---5--5--5--5--5--5--5--5--5--5--5--5---5--5--5--5--5--
G|-6--6--6--7--8----------------------------------------7--7--7--7--7--
D|---------------------------------------------------------------------
A|---------------------------------------------------------------------
E|---------------------------------------------------------------------


 A
E|-5--5--5--5--5--5--5--5--5--5--5--5--5--5--5--5--5--5--5--5----------
B|-5--5--5--5--5--5--5--5--5--5--5--5--5--5--5--5--5--5--5--5----------
G|-7--7--7--7--7--7--7--6--6--6--6--6--6--6--6--6--6--6--6--6----------
D|---------------------------------------------------------------------
A|---------------------------------------------------------------------
E|---------------------------------------------------------------------


 E7
E|-----------------------------------|
B|---------5--5--5--5--5--5--5--5--5-|
G|---------7--7--7--7--7--7--7--7--7-|
D|---------6--6--6--6--6--6--6--6--6-|
A|-7--7----7--7--7--7--7--7--7--7--7-|
E|-0--0------------------------------|

WELL, I'M

 A5A6A5A6E5E6
1. LOOKIN'______            OUT THE WINDOW  
 E5E6A5A6A5A6A5A6A5
    I'M LOOKIN' AT YOU.                                
 A6A5A6A5A6E5E6
   YEAH, I'M LOOKIN OUT THE WINDOW,___ I,  I     
 E5E6A5A6A5A6A5A6
   I'M LOOKIN AT YOU.                      
 A5A6D5D6D5D6
   WELL, I'M DREAMIN ALL THE SWEET DREAMS 
 A5A6A5A6
   AND THE MEM'RIES OF THE PAST      
 D5D6D5D6A5A6A5A6
   FEEL SO FINE  HONEY, THAT'S WHY OUR LOVE SHOULD LAST.   

CHORUS:

 D5D6D5D6A5A6A5A6
  FEELS SO GOOD BABY AN' IT'S ALL BECAUSE OF YOU.   
 E5E6E5E6
  I GOTTA LOVE YOU, 
 E5E6E5
  I NEED TO LOVE YOU.
 E6E5E6E5E7
  I WANNA LOVE YOU SO NICE.        

VERSE 2:

HAVIN' ALL THE TIME,
TIME___ TO OURSELVES.
YEAH, WE'RE HAVIN' ALL THE FUN, AH____ HAH,____
TO OURSELVES.
LORD, I'M PICKING UP THE PIECES OFF THE SHELF,
WON'T TAKE LONG BABY, CAUSE THERE'S HARDLY ANY LEFT.

REPEAT CHORUS

VERSE 3:

SAME AS VERSE 1.

THAT'S ABOUT IT.
I PLAY THE A5 - A6 - D5 - D6 - E5 - E6 LIKE:

 A5A6D5D6E5E6
E|------------------------------------------
B|------------------------------------------
G|--------------2----4----------------------
D|-2-----4------0----0----------------------
A|-0-----0-------------------2-----4--------
E|---------------------------0-----0--------


THERE MAY BE SOME DIFFERENT WORDS AT THE END OF THE SECOND VERSE OR BEGINNING O
F THE THIRD..I'M NOT SURE.


A A5 A6 D5 D6 E E5 E6 E7
variations - click chord images
Transpose chords:
Tuning:
Cool service:
View: Size:
A  A  A
Rating:
Layout:
  • Currently 4.5/5 Stars.
  • 1
  • 2
  • 3
  • 4
  • 5
 
Accuracy:
  • Currently 4/5 Stars.
  • 1
  • 2
  • 3
  • 4
  • 5
 
click stars to rate
Chordie recommends:
Learn to play guitar with video-based, online guitar lessons at JamPlay.com
Songbook:
Login to add this song to your songbook
Support the artist
Preview/buy this song
MSN Music
Why this non-profit ad?

 
login to add comments/video/corrections