Guitar Tabs, Chords and Lyrics


Tears  Stone Roses

  [D]Our love g[Cadd9]irl is g[G/B]oing through chan[D]ges
[Cadd9]I don't[G/B] know if I'm [D]alive
Dead, dyin[Cadd9]g or just[G/B] a little jade[D]d
[Cadd9]Someone thro[G/B]w me a line[D] [Cadd9]
[G/B]You know I need[D] it[Cadd9] [G/B]
I need it bad[D] [Cadd9] [G/B]
  [D]    [Cadd9]       [G/B]    Verse 2 chords as above
Lost in a maze of my own making
No way out that I can find
Send home your hard working jury
I'm going down this time
You better believe it
Yes you had
  [D]   [Cadd9]        [G/B]    [D]   [Cadd9]        [G]  Chorus1:
  [Am]So if you hea[G]r me crying or talking i[Fmaj7]n my sleep[G]
[Am]Don't be afr[G]aid, it's just the hours [Fmaj7]that I keep[G]
[Am]We've got a love [G]to last for a [Fmaj7]million years[G]
[Dm7]A love that could never[C] fade through the tracks of your[G] tears[Am] [G] [Fmaj7] [G]
  [Am]    [G]    [Fmaj7]        [G]  Chorus 2:
  [Am]All I can d[G]o is hope that you wi[Fmaj7]ll see me fall[G]
[Am]Do your bes[G]t to smash my picture on y[Fmaj7]our wall[G]
[Am]Forgive me baby[G], absolve m[Fmaj7]e my dear[G]
Dm7 C G ( D Dsus4 )x4
I've seen the future in the tracks of your tears
Solo 1-(acoustic) Am G Fmaj7x2 Am G Fmaj7 G Dm7 C G
Solo 2-(electric) Am G Fmaj7 G x13
  [Dm7]I've seen the fut[C]ure in the tracks [G]of your tears,    [Fmaj7] of you[G6]r tears,   [Fmaj7]  all th[G6]ose tears   [Fmaj7] [G6]
    [F]D   [G]Dsus[G]4 x4
Chorus 3:
  [Am]I cast a sh[G]orter shadow with every pas[Fmaj7]sing day[G]
[Am]No time to thin[G]k, I'm just fading[Fmaj7] away[G]
[Am]Some kind of magic [G]in all your[Fmaj7] hopes and fears[G]
[Dm7]Shows me the future t[C]hrough the tracks of you[G]r tears[D] [Cadd9] [G]
D Cadd9 G Repeat to fade
Thanks to: The Captain, kixbrooks@hotmail.com
--------------------------------------------------------------------------------

TEARS
h = hammer on
p = pull off s
 s   = slide up/ down eg  G----5---7----

~ = whammy or really quick bend up and down a few times
b = bend up
r = release bend
X = Dampen
The main riff for this song that I have worked out
is not accurate to what Mr squire plays, but it does
sound ok if you play with the song, there are two which
you vary at your own discretion, or when song changes.
Riff 1, played in verse:
h p p
E----------2--2--2-3-2-0---------------------------------------
B-------3-----------------3------------------------------------
G-----2---------------------2-----0------------h-b-p-----------
D---0---------------------------2---2--0--h---0-2-3-0----------
A-----------------------------3------2---0-2-------------------
E--------------------------------------------------------------

Riff 2, at end of verse sort of, play twice:
on third time go to next riff when reach line below
E--------------------------------------|-----------------------
B--------------------------------------|-----------------------
G----h-p----------0-----0--------------|-h-b-p-----------------
D---0-2-0----0------2-----2------0--h--|0-2-3-0----------------
A----------3----3-----3-----3--2---0-2-|-----------------------
E--------------------------------------|-----------------------
E--------------------------------------------------------------
B--------------------------------------------------------------
G---------------------h-p------------0------------------h-p----
D--2--0--2--0----0---0-2-0----0--------2-------0---h---0-2-0---
A--------------3------------3----3--------3--2----0-2----------
E--------------------------------------------------------------

oh yeah and just before it gets going at about 2:14 on your
CD player it goes with distortion, not to heavy, then you can
clearly hear four chords struck, they are:
                              [Am]      [G]     [Fmaj7]         [G]                                                          
E------------------------------0----3------0------3------------
B------------------------------1----3------1------3------------
G--------0---------0-----------2----0------2------0------------
D----------2---------0---------2----0------3------0------------
A-----3------3--2-------0--------------------------------------
E--------------------------------------------------------------

so if you hear me crying.........
....... future in the tracks of your tears..( go to link )
Link (acoustic):
E--------------------------------------------------------------
B-------------------------------------h-p----------------------
G--4--5-5-5--4-5-4---9--7-7--5-5--4--4-5-4--------h---5--------
D-------------------------------------------7-5--5-7----7------
A--------------------------------------------------------------
E--------------------------------------------------------------
E--------------h--p---------------8--10--12--15----------------
B-------------8-10-8---8---8--10-------------------------------
G--5---5-------------9---9-------------------------------------
D----7---7-----------------------------------------------------
A--------------------------------------------------------------
E--------------------------------------------------------------

All I can do ....
E--------------------------------------------------------------
B--------------------------------------------------------------
G-------------5-5--7-7--5-5----5---------------------------------
D-----5--7------------------7------7-7--------------------------
A--------------------------------------------------------------
E--------------------------------------------------------------

...me fall Do your best....
E-------h--p------------8--10--10--8-------8-----------------p-
B------8-10-8----8--10-----------------10-----10--10-------10 8
G--------------9-----------------------------------------------
D--------------------------------------------------------------
A--------------------------------------------------------------
E--------------------------------------------------------------

your wall... forgive me...
E--h--p-------------------------------------------------------
B-8-10-8---8-----------8---------------------------------------
G--------9---5---7---9----------------------------------------
D--------------------------------------------------------------
A--------------------------------------------------------------
E--------------------------------------------------------------

absolve me my dear... I see the future...
Solo, (acoustic):
E--------------------------------------------------------------
B----------------h--8-8---s-----------------h-p----------------
G------------7--7-9-9-9-9---7---55------5--5-7-5---5--7--------
D------------7---------------------5--7----------7-------------
A------------5-------------------------------------------------
E--------------------------------------------------------------

...your tears
E----------------------------------------s----s----------------
B----s---8----------------------s----8-8---10----13------------
G--7---9---9---7--------5--7--7---9----------------------------
D-----------------5--7-----------------------------------------
A--------------------------------------------------------------
E--------------------------------------------------------------

h p
E------------p---12--10--8--7--7-8--7----------h--------h------
B--10--10--10-8-----------------------10--8-8-8-10-10-10-8-----
G--------------------------------------------------------------
D--------------------------------------------------------------
A--------------------------------------------------------------
E--------------------------------------------------------------
E--------------------------------------------------------------
B---h---8---h---8--10--8---------h-p---------------------------
G--7-9-----7-9------------9--7--7-9-7---5--4-------------------
D---------------------------------------------7--X--X----------
A--------------------------------------------------------------
E--------------------------------------------------------------
E--------------------------------------------------------------
B--------------------------------------------------------------
G-----4-4-4-5-4-4-5-5-5-4-5-4---9--7--5--4---------5-5-5-------
D--7----------------------------------------7-7-7---------7-5-5
A--------------------------------------------------------------
E--------------------------------------------------------------

Electric (distortion):
E--------------------------------------------------------------
B--------------------------------------------------------------
G-------------------------------------5------------------------
D-----------------5---5--7-7-7-7-7-7----7--5--7~~~---5---p-----
A-----s--h---5-7----7-----------------------------------7-5----
E---3---5-7----------------------------------------------------
E--------------------------------------------------------------
B--------------------------------------------------------------
G---------------h-------p--------------------------------------
D---7~~~---h---5-7---7-7-5----------h-p------------------------
A---------5-7---------------7--5---5-7-5-----------------------
E-----------------------------------------8--7--5------X-X-X---
E-----------------h--p-----------------------------------------
B--------------8-8-10-8----------8--8---------------h-p--------
G-----------------------9--7--9--------9-----7--5--5-7-5-------
D----------5---------------------------------------------------
A----5--7------------------------------------------------------
E--7-----------------------------------------------------------
E--------------------------------------------------------------
B-------------------b-r-p----------------------b-r-p-----------
G------p-h------5--7-9-7-5--------------5-----7-9-7-5----------
D-----7-5-7~~~--------------7~~~-------------------------------
A--------------------------------------------------------------
E--------------------------------------------------------------
E--------------------------------------h--p-------h--p---------
B----------s----8---s--------h-p----8-8-10-8---8-8-10-8------8-
G-----5--7---9----9---7--5--5-7-5------------9----------9--7---
D--7------------------------------7----------------------------
A--------------------------------------------------------------
E--------------------------------------------------------------
E----------------------------
B--8---------------h-p-------
G-----9---7---5---5-7-5------
D------------------------7---
A----------------------------
E----------------------------

b r
E------------------h--p------8-10-10-12-10--8--10---8----------
B---------h--s----8-10-8--10--------------------------10-------
G----h---5-7---9-----------------------------------------------
D---5-7--------------------------------------------------------
A--------------------------------------------------------------
E--------------------------------------------------------------

b r p h b
E--15-17-15-12------12------------12-15-15-15-12-15-17-17-15-17
B---------------15-----15--12--15------------------------------
G--------------------------------------------------------------
D--------------------------------------------------------------
A--------------------------------------------------------------
E--------------------------------------------------------------

r s s s s
E--17-15---7---12-12-12-12-10--8--7--------0-------------------
B--------------------------------------------------------------
G--------------------------------------------------------------
D--------------------------------------------------------------
A--------------------------------------------------------------
E--------------------------------------------------------------
E-------------------------------------------------------------------
B------h-p--------------------h-p-------------------h-p-------------
G--h--4-5-4---------------h--4-5-4--------------h--4-5-4------------
D-5-7--------7--5--7~~~--5-7--------7--5--7~~~-5-7--------7--5--7~~~
A-------------------------------------------------------------------
E-------------------------------------------------------------------
E--------------------------------------------------------------
B--------------------------------------------------------------
G--------------------------------------------------------------
D------p--------p----------------------------------------------
A--7--7-5---5--7-5---------s---s---s---s--------s---s----s-----
E---------8--------7-3---3---5---7---8----0---3---5---10---8---
E--------------------------------------------------------------
B---------------------------------------------s-----8----------
G-------------4-4-4-5-4-4-5-5-5-4-5-7-7-7-7-7---9--------------
D--5--7--5-7-7-------------------------------------------------
A--------------------------------------------------------------
E--------------------------------------------------------------
E--------------------------------------------------------------
B---------------------------------------------s-----8----------
G-------------4-4-4-5-4-4-5-5-5-4-5-7-7-7-7-7---9--------------
D--5--7--5-7-7-------------------------------------------------
A--------------------------------------------------------------
E--------------------------------------------------------------

b r p
E---h-------------------12-10-8--10-12-10-8------13-13-13------
B--8-10-10-10-10-10-10------------------------10---------------
G--------------------------------------------------------------
D--------------------------------------------------------------
A--------------------------------------------------------------
E--------------------------------------------------------------

h p p
E--12--10--10-12-10--8--10-8--7--------------------------------
B-------------------------------10--8--10----------------------
G--------------------------------------------------------------
D--------------------------------------------------------------
A--------------------------------------------------------------
E--------------------------------------------------------------
E--------------------------------------------------------------
B---h-p--s--h-p--s---s--p-h------------------------------------
G--7-9-7---5-7-5---4---2-0-2----let ring-----------------------
D--------------------------------------------------------------
A--------------------------------------------------------------
E--------------------------------------------------------------
E--------------------------------------------------------------
B-------s------------b----b-----h-p--s---s---p-h---------------
G-----2---4----2----7-9--7-9---5-7-5---4----2-0-2-------------
D--------------------------------------------------------------
A--------------------------------------------------------------
E--------------------------------------------------------------
E---------------------------------------h-p--------------------
B----s----------1----------1---------0-0-1-0---0---------------
G--2---4------2---2---h--2---2-----0---------0-----------------
D-----------3--------0-2---------0-----------------------------
A--------------------------------------------------------------
E------------------------------3-------------------------------
E---------------h-p----------2---3--2--3--2----5--5--5---------
B-----------0--0-1-0---0-----3--------------3------------------
G---------0----------0-------2---------------------------------
D------0---------------------0---------------------------------
A--------------------------------------------------------------
E---3----------------------------------------------------------

h p s h p
E---3--2--3--2-------7--7--7---5---3---3-5-3---2-3-2---------h-
B---------------3------------------------------------5-5--3-3-5
G--------------------------------------------------------------
D--------------------------------------------------------------
A--------------------------------------------------------------
E--------------------------------------------------------------

Ending just fiddle around with riffs 1, 2, and 3.
Thanks to: Vinny Coulson, vinnie_coulson@lineone.net

Important: The song above is NOT stored on the Chordie server. The original song is hosted at www.xguitar.com. Chordie works as a search engine and provides on-the-fly formatting. Chordie does not index songs against artists'/composers' will. To remove this song please click here.

Text color:
Chord color:
Chord grids: 
Font size:    
Page size: 

Am C Cadd9 D Dm7 F Fmaj7 G G/B G6
variations - click chord images

Login - add to songbook

Transpose chords

Tuning

Rating click stars to rate

Layout
Accuracy

SHARE PAGE  




You need to log in to post comments