""; ?> I Wanna Be Adored by Stone Roses - guitar chords, guitar tabs and lyrics - chordie

I Wanna Be Adored

Stone Roses

 0:55
G D G D E (MUTE)
E----------------------------------------------7-------------------------
B----10-12-10---10------------------------------10-7---------------------
G-11----------11--11-9/7-9-7-------7----------------9-7--------------7---
D----------------------------9-7-9---9/0---------------9-7-9-------7-----
A------------------------------------------------------------------------
E------------------------------------------------------------------------


OR.......
 0:55
G D G D E (MUTE)
E----17-19-17---17---------------------------------7-----------------------
B-19---------19---19-17-15-17-15---------15---------10-7-------------------
G-------------------------------16-14-16---16/4---------9-7-------------7--
D----------------------------------------------------------9-7-9------7----
A--------------------------------------------------------------------------
E--------------------------------------------------------------------------


 1:04
 GDGDE
E--------------------------------------------------------------------------
B--------------------10----------------------------------------------------
G-----7---7-9-7-9/11----11-9-7-9^10^9--7-----9p7h9p7h9p7---------------7---
D-7-9---9------------------------------------------------9-7-9------7h9--9-
A----------------------------------------------------------------7h9-------
E--------------------------------------------------------------------------

 1:13
 GDGD
E--------------------------------------------
B--------------------------------------------
G----7---------------------------------------
D-7h9--9p7---7-------------------------------
A---------9---9p7--9p7-5--7p5------5----5----
E----------------------------7--5h7--5h7--7--

 1:17
 E
E-----------------------------------
B-----------------------------------
G-7---------------------------------
D--7h9p7--7-------------------------
A-------9--9-7h9p7/5---------5h7p5--
E-------------------7----5h7--------

 1:21
 GDGDE
E----------------------------------------------------------------
B----10-12-10----10----------------------------------------------
G-11----------11----11-9/7--9-7-------7----------9h11p9-9--------
D-------------------------------9-7-9---9-----------------9-7-9--
A----------------------------------------------------------------
E----------------------------------------------------------------

 1:28
E----------------------------
B----------------------------
G-7--------------------------
D---9-7h9p7---7--------------
A-----------9---9-7h9p7-5----
E-------------------------7--

 1:30
 GDGDEGDGDE
E-------------------------------------------------------------------
B---------------7----------------------------------7----------------
G---9---7-9-7-9---9-7-9-7-9-7----------9---7-9-7-9---9-7-9-7-9-7-9--
D-9---9-----------------------9------9---9--------------------------
A-------------------------------------------------------------------
E-------------------------------------------------------------------

 1:45
 GDGDE
E----------------------------------------------------------------------
B-12p10h12p10----------------------------------------------------------
G---------------11p9h11p9-8---7h9p7---------------------------9--------
D---------------------------9------------------------------------------
A----------------------------------------------------------------------
E----------------------------------------------------------------------

I don't have to sell my soul he's
 GDGDE
E------------------------------------------------------------------
B------------------------------------------------------------------
G-------------7----------------------------9-----------------------
D------------------------------------------------------------------
A------------------------------------------------------------------
E------------------------------------------------------------------

already in me i don't need to sell my soul he's already in me
 2:12
 GDGDEGDGDE
E---------------------------------------------------------------
B-7^8^7-7------------5-------------------------7----------------
G---------9-9--7--------7-4--------9---7-9-7-9---9-7-9-7-9-7----
D--------------------------------9---9-----------------------9--
A---------------------------------------------------------------
E---------------------------------------------------------------

I wanna be adored
 2:30
  Strum chord sequence while palm muting
 GDGDE
  I don't need to sell my soul he's already in me
 GDGDE
  I don't need to sell my soul he's already in me
 GDGDEGDGE
E--------------------------------------------------------------------
B-7^8^7-7----------------7-------7^8^7-7-----------------7----8p7----
G---------9-9--7-------------9-----------9-9--7-------------------9--
D--------------------------------------------------------------------
A--------------------------------------------------------------------
E--------------------------------------------------------------------

I wanna be adored I wanna be adored
 3:04
 DCDCDCDCDCDC
E----------------------------------------------------------------------------
B--------------------5-------------5----------------------5------------------
G-7--7-5-7-5----7--7---7-5-7---7-7---7-5-7---7-5-7---7--7---7-5-7---7-7-5-7--
D------------7---------------------------------------------------------------
A----------------------------------------------------------------------------
E----------------------------------------------------------------------------

 DCDCD
E---------------------------------------------------------
B------------------------------7-7-7-7-7-7-7-7-7-7-7-7-7--
G-7p5---5----------------------7-7-7-7-7-7-7-7-7-7-7-7-7--
D-----7---7p5---5-5------------7-7-7-7-7-7-7-7-7-7-7-7-7--
A-------------7-----7-5-7-5-3--5-5-5-5-5-5-5-5-5-5-5-5-5--
E---------------------------------------------------------

 DGDGE
E-----------------------------------------------------------------
B-----------------------------------------10----------------------
G--------------------------7---7-9-7-9/11----11-9-7-9^10^9-7------
D----------------------7-9---9------------------------------------
A-----------------------------------------------------------------
E-----------------------------------------------------------------

Adored............... I wanna be adored..
fiddle about in same key a little while he sings on (fast fiddly bits) until..
 4:07
 GDGDE
E---------------------------------7-7-7-----7---7------
B---------------7--------------------------------------
G---9---7-9-7-9---9-7-9-7-9-7---9-------9-9---9---9/5--
D-9---9------------------------------------------------
A------------------------------------------------------
E------------------------------------------------------

 GDGDE
E-----------------------------------------------------------------
B---------------7---------------7---------------7-----------------
G---9---7-9-7-9---9-7-9-7-9-7-9---9-7-9-7-9-7-9---9-7-9^10^9-7----
D-9---9--------------------------------------------------------9--
A-----------------------------------------------------------------
E-----------------------------------------------------------------

 GDGDE
              I Wanna be adored...


C D E G
variations - click chord images
Transpose chords:
Tuning:
Cool service:
View: Size:
A  A  A
Rating:
Layout:
  • Currently 0/5 Stars.
  • 1
  • 2
  • 3
  • 4
  • 5
 
Accuracy:
  • Currently 0/5 Stars.
  • 1
  • 2
  • 3
  • 4
  • 5
 
click stars to rate
Chordie recommends:
Get acoustic guitar lessons and electric guitar lessons at JamPlay.com
Songbook:
Login to add this song to your songbook
Support the artist
Preview/buy this song
MSN Music
Why this non-profit ad?

 
login to add comments/video/corrections