Guitar Tabs, Chords and Lyrics


Black Again   Stone Temple Pilots







SONG: Black Again
ARTIST: Stone Temple Pilots
ALBUM: Shangri-La Dee Da

INTRO

E|---------------------------------------------|
B|----3--2b~-----0--1b~------------------------| X 2
G|--------------------------2--1b~--------4b~--|
D|-------------------------------------4-------|
A|-0----------3--------------------------------|
E|-----------------------0----------3----------|

E|---------------------------------------------|
B|----3--2b~-----------------------------------|X 1, then play
G|---------------5--4b~-----2--1b~--------4b~--|     top riff again
D|-------------------------------------4-------|
A|-0----------3--------------------------------|
E|-----------------------0----------3----------|

VERSES

E|-0--0-0-0-0--0--0-0-0-0-0--|
B|-1--1-1-1-1--3--3-3-3-3-3--|
G|-0--0-0-0-0--0--0-0-0-0-0--|
D|-2--2-2-2-2--4--4-4-4-4-4--|
A|-3--3-3-3-3--5--5-5-5-5-5--|
E|---------------------------|

CHORUS

E|-0--0-/-0--0-/-0--0--0--0-0-0--|
B|-3--1-/-3--1-/-3--5--1--1-1-1--|
G|-0--0-/-0--0-/-0--0--0--0-0-0--|  X 4
D|-4--2-/-4--2-/-4--4--2--2-2-2--|
A|-5--3-/-5--3-/-5--5--3--3-3-3--|
E|-------------------------------|

Distorted guitar plays this:

E|---------------------|
B|-7---5h7--5h7--8--5--|
G|---------------------|
D|---------------------|
A|---------------------|
E|---------------------|

Then play this part during the "alone, as long as
I'm beside her" part:

E|--------------|
B|--------------|
G|-4--4-4-4--3--|
D|-4--4-4-4--3--|
A|-2--2-2-2--1--|


Important: The song above is NOT stored on the Chordie server. The original song is hosted at www.xguitar.com. Chordie works as a search engine and provides on-the-fly formatting. Chordie does not index songs against artists/composers will. To remove this song please click here.

This song is displayed as text-only. Transposing and tuning is only available for chordpro-songs.

Login - add to songbook

Rating click stars to rate

Layout
Accuracy

SHARE PAGE  




You need to log in to post comments