Guitar Tabs, Chords and Lyrics


Days of the Week   Stone Temple Pilots



Artist: Stone Temple Pilots
Song: Days of the Week
Album: Shangri-La-Dee-Da


Tabbed by The Guit*rstud J.C.


Here it is...the first single off the new album: Days
of the Week.


*I read in a guitar magazine that Dean was "inspired"
to write the chord progressions after listening to a
Joe Walsh song called "Indian Summer" so check it
out..ill think you recognize it. This is just the
chords: music is not note for note.(hint: IMPROVISE)


Verse riffs:
E-------------------------------------------------
B--5---2-2---0--0--0---2-2---0--2--3--2---0--0--2--
G--4---2-2---1--1--1---2-2---0--2--2--2---0--0--2--
D--6---2-2---2--2--2---2-2---0--2--4--2---0--0--2--
A------------2--2--2-------------------------------
E--------------------------------------------------


E---------------
B--3--2--0-0----
G--2--2--0-0----
D--4--2--0-0----
A---------------
E---------------


Chorus progression:
E----------------------------------------------------
B----------------------------------------------------
G---------------4--4--4--4----------------4--4--4--4-
D--4--4--4--4---4--4--4--4---4--4--4--4---4--4--4--4-
A--4--4--4--4---2--2--2--2---4--4--4--4---2--2--2--2-
E--2--2--2--2----------------2--2--2--2--------------


(guitar plays this while bass plays ascending line)
E--3-3-3------3-3-3------3-3-------------------------
B--0-0-0--2---0-0-0--2---0-0--2----------------------
G--0-0-0--2---0-0-0--2---0-0--2----------------------
D--0-0-0--2---0-0-0--2---0-0--2----------------------
A--2-2-2--0---2-2-2--0---2-2--0----------------------
E--3-3-3------3-3-3------3-3-------------------------


Bridge: 1/2 speed part (not sure about exact licks)

   E   A   G   G
E------5---3---3-
B------5---3---3-
G--9---6---4---4-
D--9---7---5---5-
A--7---7---5---5-
E------5---3---3-


Important: The song above is NOT stored on the Chordie server. The original song is hosted at www.xguitar.com. Chordie works as a search engine and provides on-the-fly formatting. Chordie does not index songs against artists/composers will. To remove this song please click here.

This song is displayed as text-only. Transposing and tuning is only available for chordpro-songs.

Login - add to songbook

Rating click stars to rate

Layout
Accuracy

SHARE PAGE  




You need to log in to post comments