Guitar Tabs, Chords and Lyrics


Sad Air    Strait Up



Snot- Sad Air Intro
Tabbed by Peter Oldfield

This is a great song on the acoustic and Lynn was a great man.

Normal tuning (half a step down if you want to play with the cd)

e|-------------------|-------------------|-----------------|----------------|
B|-------------------|-------------------|-----------------|----------------|
G|-------------------|-------------------|-----------------|----------------|
D|-------------------|-------------------|-----------------|------------8-7-|
A|-----2-3-3-3-2-0-2-|-----2-3-3-3-2-0-5-|-----2-3-3-3-2-2-|-----3b---5-----|
E|-0-0---------------|-0-0---------------|-0-0-------------|-0-0---0--------|

or here is another version

Tabbed by : blinders
E-mail : blinders@club-internet.fr
D drop
(^!^)this is an abredged version for one guit
A
|-------------------------------------------------------------------|
|--------------------------------------------------------------6-5--|
|------------------------------------------------------------3------|
|-/7h888p7---7-----/7h888p7-/-10----/7h888p7---7----3(1/4)-0---3-2--|
|-------------------------------------------------------------------|
|--0-------0----00----------0----00----------0---00-----------------|

|------------------------------------------------------------------|
|------------------------------------------------------------------|
|-------------------------------------------------------2------5---|
|---/7h888p7---7-----/7h888p7-/-10----/7h888p7---7----3---1--5---5-|
|------------------------------------------------------------------|
|-00---------0----00----------0----00----------0---00--------------|

|-------------------------------------------------------------------|
|--------------------------------------------------------------6-5--|
|------------------------------------------------------------3------|
|-/7h888p7---7-----/7h888p7-/-10----/7h888p7---7----3(1/4)-0---3-2--|
|-------------------------------------------------------------------|
|--0-------0----00----------0----00----------0---00-----------------|

|-----------------------------------------|
|-5b-5r-----3-----------------------------|
|-------2h3---2---------------------------|
|-----------------------------------------|
|-----------------/555555-5/777-7h8p7-5---|
|-----------------------------------------|

Central part (let ring the chords)
|-----------------------0--------------------------------------|
|-----3-------------3-----3-------3---------------------8/11-9-|
|-----5-------------0-------0-----5----------------------------|
|-----3---3---3---2---------------3---3---3-------3h5---5-/8-7-|
|---0---7---7---3---------------0---7---7---1--/3--------------|
|-0---------------------------0-----------------------5--------|

then repeat A w/some additions between the holes
|-/7777-7/8\\7-|
|-------------|
|-------------|

|-----------------|
|-/6p5------------|
|--------3p2-/5p3-|
|-----------------|
|-----------------|
|-----------------|

just an arrangement..try to find the whole experience

ending waves::
|-------------------------------------------------------------|
|----3-----------------------6-------6-----10-----------6-----|
|----5-----2--7(hn)---------------------7--10--------------7--|
|----3-----0-----------3-------------7------------3-----------|
|-------------------------5-------------5------------5--------|


Important: The song above is NOT stored on the Chordie server. The original song is hosted at www.xguitar.com. Chordie works as a search engine and provides on-the-fly formatting. Chordie does not index songs against artists'/composers' will. To remove this song please click here.

This song is displayed as text-only. Transposing and tuning is only available for chordpro-songs.

Login - add to songbook

Rating click stars to rate

Layout
Accuracy

SHARE PAGE  




You need to log in to post comments