"yes"; ?> Walk on By by Stranglers - guitar chords, guitar tabs and lyrics - chordie

Walk on By

Stranglers

----------

E---------------------|
B--------------3p1----|
G--2-2-x-2-2-2-2---2--|
D--2-2-x-2-2-2-2---2--| <- play 8 times, when pulling off from the Asus4 chord to the
A--0-0-x-0-0-0-0---0--| Am, let the other strings ring. Listen to the recording to see
E---------------------| what I mean.

 Am
 If you see me walking down the streets
 DAmDAmD
And I start to cry each time we meet  
 Gm7Am
Walk on by    
 Gm7Am
Oh, walk on by and make believe
 DmAm
That I can see the tears that let me grieve
 BbC
In private 'cos each time I see you
 FBb
I just wanna cry  
 FBbFBbF
Walk on by,  walk on by,  walk on by

 Am
 I just can't get over losing you
 DAmDAmD
And so if I seem so broken in pieces   
 Gm7Am
Walk on by    
 Gm7Am
Oh, walk on by and foolish pride
 DmAm
If I can see the tears then let me hide
 BbC
All the tears and the sadness you gave me
 FBb
When you said goodbye  
 FBbFBbAm7
Walk on by,  walk on by,  walk on by
 Bm7
Let's go for a stroll in the trees!

keyboard solo:
Am7 Bm7 (x 33)

guitar solo:

 Am7Bm7Am7Bm7
E------------------------------|-----------------------------------------------|
B--10----10-12-12^12p10-----10-|-12-12^-10-12^-10------------------------------|
G------------------------12----|------------------12-11h12p11------------------|
D------------------------------|------------------------------12-9---9-9h10p9--|
A------------------------------|-----------------------------------------------|
E------------------------------|-----------------------------------------------|


 Am7Bm7Am7Bm7
E-------------------------------------------|-------------------------------------------------|
B-------------------------------------10-12-|--12^12p10-----10-12-12^12p10-12^-10-------------|
G--------------------------9-11-11s12-------|------------12-----------------------12-11h12p11-|
D------------------9-10-12------------------|-------------------------------------------------|
A-12-9---9-9-10-12--------------------------|-------------------------------------------------|
E-------------------------------------------|-------------------------------------------------|


 Am7Bm7
E---------------------------------------------------------|
B--12h13p12-----------------------------------------------|
G-----------14-12-12h14p12--------------------------------|
D--------------------------14-12-12h14p12-----------------|
A-----------------------------------------14-12--12s14----|
E---------------------------------------------------------|


 Am7Bm7
E---------------------------------------------------------|
B--12h13p12-----------------------------------------------|
G-----------14-12-12h14p12--------------------------------|
D--------------------------14-12-12h14p12-----------------|
A-----------------------------------------14-12--12s14----|
E---------------------------------------------------------|


 Am7Bm7
E---------------------------------------------------------|
B---------------------------------------------------------|
G--------------12-14-14^-12----12-14-14^-12---------------|
D--------12h14--------------14--------------14-12h14p12---|
A--12h14--------------------------------------------------|
E---------------------------------------------------------|


 Am7Bm7
E---------------------------------------------------------|
B------------------------------------12-13-13s15----------|
G--------------12-14-14^-12----12-14----------------------|
D--------12h14--------------14----------------------------|
A--12h14--------------------------------------------------|
E---------------------------------------------------------|


 Am7Bm7Am7Bm7
E-----15-----15-----15-----15-----15-----15-----15-----15-----15------------|
B-15^----15^----15^----15^----15^----15^----15^----15^----15^*----15**------|
G---------------------------------------------------------------------------|
D---------------------------------------------------------------------------|
A---------------------------------------------------------------------------|
E---------------------------------------------------------------------------|


^^ bends are up a full note, hold bend on the * and release the bend on the ** ^^

 Am7Bm7
E---------------------------------------------------------|
B--12h13p12-----------------------------------------------|
G-----------14-12-12h14p12--------------------------------|
D--------------------------14-12-12h14p12-----------------|
A-----------------------------------------14-12--12s14----|
E---------------------------------------------------------|


 Am7Bm7
E---------------------------------------------------------|
B---------------------------------------------------------|
G--------------12-14-14^-12----12-14-14^-12s--------------|
D--------12h14--------------14----------------------------|
A--12h14--------------------------------------------------|
E---------------------------------------------------------|


 Am7Bm7Am7Bm7
E--0---0---0---0---0------------------|--0---0---0---0---0-------------------|
B--3s5-3s5-3s5-3s5-3s5-3p1p0----------|--3s5-3s5-3s5-3s5-3s5-3p1p0-----------|
G----------------------------2-2s4----|----------------------------2-2s4-----|
D-----------------------------------2-|----------------------------------4s5-| <- let high E
A-------------------------------------|--------------------------------------| string ring
E-------------------------------------|--------------------------------------|


 Am7Bm7Am7Bm7
E--0---0---0---0---0------------------|--0---0---0---0---0-------------------|
B--3s5-3s5-3s5-3s5-3s5-3p1p0----------|--3s5-3s5-3s5-3s5-3s5-3p1p0-----------|
G----------------------------2-2s4----|----------------------------2-2s4-----|
D-----------------------------------2-|----------------------------------4s5-| <- same here
A-------------------------------------|--------------------------------------|
E-------------------------------------|--------------------------------------|


 Am7Bm7Am7Bm7
E---------------------------------------------------------------------------------------------|
B--3h5p3----3h5p3----3h5p3----3h5p3----3h5p3-----1h3p1----1h3p1----1h3p1----1h3p1----1h3p1----|
G---------4--------4--------4--------4--------4---------2--------2--------2--------2--------2-|
D---------------------------------------------------------------------------------------------|
A---------------------------------------------------------------------------------------------|
E---------------------------------------------------------------------------------------------|


 Am7Bm7Am7Bm7
E---------------------------------------------------------------------------------------------|
B--3h5p3----3h5p3----3h5p3----3h5p3----3h5p3-----1h3p1----1h3p1----1h3p1----1h3p1----1h3p1----|
G---------4--------4--------4--------4--------4---------2--------2--------2--------2--------2-|
D---------------------------------------------------------------------------------------------|
A---------------------------------------------------------------------------------------------|
E---------------------------------------------------------------------------------------------|


 Am7Bm7Am7Bm7
E-------------------------------|----------------------------------|
B----------------3--------------|-------------------8-7--7-7s8-7s8-|
G--------2-----2---4--4-4s5-4s5-|----------7------7----------------|
D--2-4-5---4-5------------------|-7-7-9-10---9-10------------------|
A-------------------------------|----------------------------------|
E-------------------------------|----------------------------------|


 Am7Bm7
E-----------------------10------------------|
B-----------10-------10----12--12-12^-10----|
G-9-9-11-12----11-12---------------------12-|
D-------------------------------------------|
A-------------------------------------------|
E-------------------------------------------|


 Am7Bm7Am7Bm7
E------------------------------------------------------------------------------|
B-10-12^-10-12^-10-12^-10-12^-10-----------------------------------------------|
G--------------------------------12-11h12p11-----------------------------------|
D--------------------------------------------12-9--9-9h10p9--------------------|
A-----------------------------------------------------------12-9--9-9h10p9-----|
E---------------------------------------------------------------------------12-|


over Am7 and Bm7:

E-----------|
B-----------|
G-----------|
D-9h10p9----| <- repeat 13 times
A--------12-|
E-----------|
E-------------|
B-------------|

G-11h12p11----|
D----------12-| <- repeat 5 times
A-------------|
E-------------|
E-------------|

B-10h12p10----|
G----------12-|
D-------------| <- repeat 5 times
A-------------|
E-------------|


E-10h12p10----|
B----------12-|
G-------------|
D-------------| <- repeat 13 times
A-------------|
E-------------|


 Am7Bm7
E----------------------------------------------|
B-12^*--**12p10--------------------------------|
G---------------12-11h12p11--------------------|
D---------------------------12-9--9h10p9-------| <- bend up, hold at * and release
A----------------------------------------12-9--|  bend and pull off at **.
E----------------------------------------------|


over Am7 and Bm7:

E-----------|
B-----------|
G-----------|
D-9h10p9----| <- repeat 13 times
A--------12-|
E-----------|


 Gm7Am
Walk on by    
 Gm7Am
Oh, walk on by and make believe
 DmAm
That I can see the tears that let me grieve
 BbC
In private 'cos each time I see you
 FBb
I just wanna cry  
 FBbFBb
Walk on by,  walk on by...

(vocal ad. lib, repeat F and Bb, end on F).


Am Am7 Bb Bm7 C D Dm F Gm7
variations - click chord images
Transpose chords:
Tuning:
Cool service:
View: Size:
A  A  A
Rating:
Layout:
  • Currently 3/5 Stars.
  • 1
  • 2
  • 3
  • 4
  • 5
 
Accuracy:
  • Currently 2/5 Stars.
  • 1
  • 2
  • 3
  • 4
  • 5
 
click stars to rate
Chordie recommends:
Get acoustic guitar lessons and electric guitar lessons at JamPlay.com
Songbook:
Login to add this song to your songbook
Support the artist
Preview/buy this song
MSN Music
Why this non-profit ad?

 
login to add comments/video/corrections