"yes"; ?> Sometimes by Stranglers - guitar chords, guitar tabs and lyrics - chordie

Sometimes

Stranglers

---------


 AmGAmG
 Someday I'm gonna smack your face
 AmGAmG
 Someday I'm gonna smack your face
 AmGAmG
 Somebody's gonna call your bluff
 AmGAmG
 Somebody's gonna treat your rough
 CE
 Sometimes there's only one way out, I gotta fight!

Am D (x8)

 AmGAmG
 Sometimes I get to feel so mean
 AmGAmG
 Sometimes I get to feel so mean
 AmGAmG
 Sometimes you look like you're too clean
 AmGAmG
 Sometimes I see the in-between
 CE
 Sometimes only one way, I gotta fight!

 DAmCG
 You're way past your station   
 DAmCE
 Beat you honey, 'til you drop

guitar solo (repeat chords Am D):

E---------------------------------------------------|
B------0-----0h1p0----------------------------------|
G----2--------------2--0--0--0h2--------------------|
D--------------------------------0h2----------------|
A--0------------------------------------3--2--0-----|
E-------------------------------------------------0-|
E---------------------------------------------------|
B------0-----0h1p0----------------------------------|
G----2--------------2--0-1-2------------------------|
D---------------------------------------------------|
A--0------------------------------------------------|
E-----------------------------5-3------5--3---2-----|
E---------------------------------------------------|
B------0-----0h1p0----------------------------------|
G----2--------------2--0--0--0h2--------------------|
D--------------------------------0h2----------------|
A--0------------------------------------3--2--0-----|
E-------------------------------------------------0-|
E----------------------------------------------------------|
B------0-----0h1-3-1--0------------------------------------|
G----2-------------------2s4--2--0-------------------------|
D----------------------------------2s4--2-0----------------|
A--0----------------------------------------3-2-0----------|
E-------------------------------------------------3-2---0--|
E--0-----0-----0-----0-----0-----0-----0-----0-----|
B----7-----0-----8-----0-----7-----0-----8-----0---|
G------7-----7-----7-----7-----7-----7-----7-----7-|
D--------------------------------------------------|
A--------------------------------------------------|
E--------------------------------------------------|
E--0-----0-----0-----0-----0-----0-----0-----0-----|
B----7-----0-----8-----0-----7-----0-----8-----0---|
G------7-----7-----7-----7-----7-----7-----7-----7-|
D--------------------------------------------------|
A--------------------------------------------------|
E--------------------------------------------------|
E--0-----0-----0-----0-----0---------------------------|
B----7-----0-----8-----0-----7-7-7-7-5-----------------|
G------7-----7-----7-----7-------------7-5-4h5p4-------|
D-------------------------------------------------7-5--|
A------------------------------------------------------|
E------------------------------------------------------|
E---------------------------------------------------------|
B---------------------------------------------------------|
G---------------------------------------------------------|
D--4----------------------------0-2-4---------------0-2-4-|
A----7-5-3----------------0-2-3---------------0-2-3-------|
E----------7-5-3-2-0h2h3---------------0h2h3--------------|
E---------------------------------------------------------------------------|
B---------------------------------------------------------------------------|
G---------------------------------------------------------------------------|
D--------------0-2-4-------------0-2-4-------------0-2-4-------------0-2-4--|
A--------0-2-3-------------0-2-3-------------0-2-3-------------0-2-3--------|
E--0h2h3-------------0h2h3-------------0h2h3-------------0h2h3--------------|
E---------------------------------------------------------------------------|
B---------------------------------------------------------------------------|
G--------------0-2-4-------------0-2-4-------------0-2-4-------------0-2-4--|
D--------0-2-4-------------0-2-4-------------0-2-4-------------0-2-4--------|
A--0h2h3-------------0h2h3-------------0h2h3-------------0h2h3--------------|
E---------------------------------------------------------------------------|
E---------------------------------------------------------------------------|
B--------------0-1-3-------------0-1-3-------------0-1-3-------------0-1-3--|
G--------0-2-4-------------0-2-4-------------0-2-4-------------0-2-4--------|
D--0h2h4-------------0h2h4-------------0h2h4-------------0h2h4--------------|
A---------------------------------------------------------------------------|
E---------------------------------------------------------------------------|
E---------------------------------------------------------------------------|
B---------------------------------------------------------------------------|
G---------------------------------------------------------------------------|
D--------------0-2-4-------------0-2-4-------------0-2-4-------------0-2-4--|
A--------0-2-3-------------0-2-3-------------0-2-3-------------0-2-3--------|
E--0h2h3-------------0h2h3-------------0h2h3-------------0h2h3--------------|
E-----------------------------------3-5-7---5h7p5-3---2-3-0-----0-----0-----0---|
B-----------------------------------------------------------3s5---3s5---3s5---0-|
G-------------------------------------------------------------------------------|
D--------------0-2-4------------------------------------------------------------|
A--------0-2-3-------------0-2-3------------------------------------------------|
E--0h2h3-------------0h2h3------------------------------------------------------|
E--3-5-7---5h7p5-3---2--3---|
B---------------------------|
G---------------------------|
D---------------------------|
A---------------------------|
E---------------------------|


 DAm
 You're way past your station
 CG
 It's useless asking you to stop
 DAm
I got morbid fascination
 CE
 Beat you honey 'til you drop

Am D (x8)

 AmGAmG
 Sometimes you're gonna get some stick
 AmGAmG
 Sometimes you're gonna get some stick
 AmGAmG
 Somebody's standing in our way
 AmGAmG
 Somebody's gonna have to pay
 CE
 Sometimes there's only one way, I gotta fight

Am D (x21) E5 D5 C5 B5
end on Am.


Am C D E G
variations - click chord images
Transpose chords:
Tuning:
Cool service:
View: Size:
A  A  A
Rating:
Layout:
  • Currently 4/5 Stars.
  • 1
  • 2
  • 3
  • 4
  • 5
 
Accuracy:
  • Currently 2/5 Stars.
  • 1
  • 2
  • 3
  • 4
  • 5
 
click stars to rate
Chordie recommends:
Learn how to play guitar at JamPlay.com
Songbook:
Login to add this song to your songbook
Support the artist
Preview/buy this song
MSN Music
Why this non-profit ad?

 
login to add comments/video/corrections