Guitar Tabs, Chords and Lyrics


Cold Winter Nights    Stratovarius



E|-----------------------------------------------------------------------------|
B|-----------------------------------------------------------------------------|
G|*----------------------------------------------------------------------------|
D|*-7-----9-----10-----12-----14-----15-----14-----12-----10-----9-----7-----6-|
A|----0-0---0-0----0-0----0-0----0-0----0-0----0-0----0-0----0-0---0-0---0-0---|
E|-----------------------------------------------------------------------------|
     pm..|  pm..| pm..|  pm..|  pm..|  pm..|  pm..|  pm..|  pm..| pm..| pm..|

E--------------------------------------------------------------------------------|
B--------------------------------------------------------------------------------|
G-------------------------------------------------------------------------------*| x2
D-7-----9-----10-----12-----14-----15-----17-----15-----14-----12-----10-----9--*|
A---0-0---0-0----0-0----0-0----0-0----0-0----0-0----0-0----0-0----0-0----0-0-----|
E--------------------------------------------------------------------------------|
   pm..| pm..|  pm..|  pm..|  pm..|  pm..|  pm..|  pm..|  pm..|  pm..|  pm..|

			Verse 1     					   Bridge
E-----------------------------------------------------------------------------------|
B---------------|---------------------------------------|-----|---------------------|
G------5-4-5-2--|-----------------------------5-4-5-2---|-----|---------------------|
D-3----5-4-5-2--|-----------------------------5-4-5-2---|-x4--|--3----5----3----2---|
A-3----3-2-3-0--|-0-0-0-0-0-0-0-0-0-0-0-0-0-0-3-2-3-0---|-----|--3----5----3----2---|
E-1--------------------------------------------------------------1----3----1----0---|
		     pm..........................|
  Chorus
E----------------------------------------------------------|
B----------------------------------------------------------|
G-2---5-------2----------5---2----2---5-------2------------|
D-2---5---5---2---5--3---5---2----2---5---5---2---5--3--2--|
A-0---3---5---0---5--3---3---2----0---3---5---0---5--3--2--|
E---------3-------3--1-------0------------3-------3--1--0--|

E----------------------------------------------------------------------------|
B----------------------------------------------------------------------------|
G----------------------------------------------------------------------------|
D-7-----9-----10-----12-----14-----15-----14-----12-----10-----9-----7-----6-|
A---0-0---0-0----0-0----0-0----0-0----0-0----0-0----0-0----0-0---0-0---0-0---|
E----------------------------------------------------------------------------|
   pm..|  pm..| pm..|  pm..|  pm..|  pm..|  pm..|  pm..|  pm..| pm..| pm..|

E------------------------------------------------------------------------------------
B------------------------------------------------------------------------------------
G------------------------------------------------------------------------------------
D-7-----9-----10-----12-----14-----15-----17-----15-----14-----12-----10-----9----3--
A---0-0---0-0----0-0----0-0----0-0----0-0----0-0----0-0----0-0----0-0----0-0------3--
E---------------------------------------------------------------------------------1--
   pm..| pm..|  pm..|  pm..|  pm..|  pm..|  pm..|  pm..|  pm..|  pm..|  pm..|

-----------|
-----------|
--5-4-5-2--|
--5-4-5-2--|
--3-2-3-0--|
-----------|
  pm..| pm..|  pm..|  pm..|

Verse 2

Bridge

Chorus

E----------------------------------------------------------------------------|
B----------------------------------------------------------------------------|
G----------------------------------------------------------------------------|
D-7-----9-----10-----12-----14-----15-----14-----12-----10-----9-----7-----6-|
A---0-0---0-0----0-0----0-0----0-0----0-0----0-0----0-0----0-0---0-0---0-0---|
E----------------------------------------------------------------------------|
     pm..|  pm..| pm..|  pm..|  pm..|  pm..|  pm..|  pm..|  pm..| pm..| pm..|

E-------------------------------------------------------------------------------|
B-------------------------------------------------------------------------------|
G-------------------------------------------------------------------------------|
D-7-----9-----10-----12-----14-----15-----17-----15-----14-----12-----10-----9--|
A---0-0---0-0----0-0----0-0----0-0----0-0----0-0----0-0----0-0----0-0----0-0----|
E-------------------------------------------------------------------------------|
   pm..| pm..|  pm..|  pm..|  pm..|  pm..|  pm..|  pm..|  pm..|  pm..|  pm..|

Solo

E--------------Hold-bend-------------------9b(10)-9-9-7-7----------------------------
B-10b(12)--12--12--12--12--12--(12)r10--8-----------------10-10-8-8-7-7--------------
G-----------------------------------------------------------------------9-9-7-7-6-6--
D-----------------------------------------------------------------------------------
A------------------------------------------------------------------------------------
E------------------------------------------------------------------------------------

------------------|
-----12-12-14-15--|
------------------|
9-9~~-------------|
------------------|
------------------|

E-14h17p17----------14h17p14-----------------------------------12~~~~----------------
B----------15-14-15----------15-14-12-15-14-12-12b(14)-12--10---------|--------------
G---------------------------------------------------------------------|-Keyboard-----
D---------------------------------------------------------------------|--------------
A---------------------------------------------------------------------|--------------
E------------------------------------------------------------------------------------

-----|-|
-----|-|
Solo-|-|
-----|-|
-----|-|
-----|-|

Rhythm Guitar under Solo
						   x2
E----------------------------------------------------------------------------------|
B------------------------------------------------------|---------------------------|
G------------------------------------------------------|---------------------------|
D-9--------------------------5-------------------------|-7-------------------------|
A-9--------------------------5-------------------------|-7-------------------------|
E-7-7-7-7-7-7-7-7-7-7-7-7-7--3-3-3-3-3-3-3-3-3-3-3-3-3---5-5-5-5-5-5-5-5-5-5-5-5-5-|
   pm......................|  pm......................|  pm......................|

E---------------------------------------------------------------------------------|
B---------------------------------------------------------------------------------|
G----------------------------7----------------------------------------------------|
D-3--------------------------7--------------------------2-------------------------|
A-3--------------------------5-5-5-5-5-5-5-5-5-5-5-5-5--2-------------------------|
E-1-1-1-1-1-1-1-1-1-1-1-1-1-----------------------------0-0-0-0-0-0-0-0-0-0-0-0-0-|
   pm......................|  pm......................|  pm......................|

E-5-0-0-7-8-0-0-10-12-0-0-13-12-0-0-10-8-0-0-7-5-0-0-4-5-0-0-4-5-0-7-0-5-0-0-7-8-0-0-
B------------------------------------------------------------------------------------
G*-----------------------------------------------------------------------------------
D*-----------------------------------------------------------------------------------
A------------------------------------------------------------------------------------E------------------------------------------------------------------------------------

----------------|
----------------|
----------------|
----------------|
----------------|
----------------|


E-0-0-13-12-0-0-10-8-0-0-7-5-0-4-0-5~~--|
B---------------------------------------|
G--------------------------------------*| x 4
D--------------------------------------*|
A---------------------------------------|
E---------------------------------------|

  Guitar 1
E------------------------------------------------------------------------------------
B------------------------------------------------------------------------------------
G------------------------------------------------------------------------------------
D-7--9--10--12--14--15--14--12--10--9--7--5--7--9--10--12--14--15--17--15--14--12--
A------------------------------------------------------------------------------------
E------------------------------------------------------------------------------------

------|
------|
------| x2
10--9-|
------|
------|

 Guitar 2
E------------------------------------------------------------------------------------
B------------------------------------------------------------------------------------
G------------------------------------------------------------------------------------
D-7----------------------5-------------------3----------------------2----------------
A-7----------------------5-------------------3----------------------2----------------
E-5----------------------3-------------------1----------------------0----------------

----|
----|
----| x2
----|
----|
----|

Chorus

E|-----------------------------------------------------------------------------|
B|-----------------------------------------------------------------------------|
G|*----------------------------------------------------------------------------|
D|*-7-----9-----10-----12-----14-----15-----14-----12-----10-----9-----7-----6-|
A|----0-0---0-0----0-0----0-0----0-0----0-0----0-0----0-0----0-0---0-0---0-0---|
E|-----------------------------------------------------------------------------|
     pm..|  pm..| pm..|  pm..|  pm..|  pm..|  pm..|  pm..|  pm..| pm..| pm..|

E--------------------------------------------------------------------------------|
B--------------------------------------------------------------------------------|
G-------------------------------------------------------------------------------*| x4
D-7-----9-----10-----12-----14-----15-----17-----15-----14-----12-----10-----9--*|
A---0-0---0-0----0-0----0-0----0-0----0-0----0-0----0-0----0-0----0-0----0-0-----|
E--------------------------------------------------------------------------------|
   pm..| pm..|  pm..|  pm..|  pm..|  pm..|  pm..|  pm..|  pm..|  pm..| pm..|

E--------------------------------------------------------------------------------|
B--------------------------------------------------------------------------------|
G--3-----------------------------------------------------------------------------|
D--3----3------------------------------------------------------------------------|
A--1----3------------------------3-2-----------------------------3-2-------------|
E-------1----5-3-5--5-3-5--5-3-5-----3-5-----5-3-5--5-3-5--5-3-5-----3-5---------|

end


Important: The song above is NOT stored on the Chordie server. The original song is hosted at www.xguitar.com. Chordie works as a search engine and provides on-the-fly formatting. Chordie does not index songs against artists'/composers' will. To remove this song please click here.

This song is displayed as text-only. Transposing and tuning is only available for chordpro-songs.

Login - add to songbook

Rating click stars to rate

Layout
Accuracy

SHARE PAGE  




You need to log in to post comments