Guitar Tabs, Chords and Lyrics


Rebel    Stratovarius



Intro/Main Theme
Riff 1 (4x)

e(-5-0-7-0-8-0-5-0-10-0-8-0-7-0-8-0-5-0-7-0-8-0-5-0-10-0-8-0-7-0-4-0-
B(-------------------------------------------------------------------
G(-------------------------------------------------------------------
D(-------------------------------------------------------------------
A(-------------------------------------------------------------------
E(-------------------------------------------------------------------

e(-5-0-7-0-8-0-5-0-10-0-8-0-7-0-8-0---13---12-12---10-10---8-8-7-)
B(---------------------------------------------------------------)
G(---------------------------------------------------------------)
D(---------------------------------------------------------------)
A(---------------------------------------------------------------)
E(---------------------------------------------------------------)

Riff 2

e(-7------------------------------13-10-12-13-12-10-------------------
B(-----10-10---9-9---6-6---5-5=---------------------13-10-12-13-12-10-
G(--------------------------------------------------------------------
D(--------------------------------------------------------------------
A(--------------------------------------------------------------------
E(--------------------------------------------------------------------

e(--------------------------------------------------------------------)
B(-15-12-13-15-13-12-12-9-10-12-10-9----------------------------------)
G(-----------------------------------12-9-10-12-10-9-10-7-9-10-9-7-9=-)
D(--------------------------------------------------------------------)
A(--------------------------------------------------------------------)
E(--------------------------------------------------------------------)

Verse
Riff 3 (clean, let ring)

e(---5=---4=---3=---2=---1=---0=---2=----0=----)
B(---5=---5=---3=---3=---1=---1=---1=----0=----)
G(---5=---4=---4=---2=---2=---2=---2=----1=----)
D(---7=---6=---5=---4=---3=---2=---1=----2=----)
A(--------------------------------------(2=)---)
E(--------------------------------------(0=)---)

Verse
Riff 4
 e(-----------------------------------------------------------------
B(-----------------------------------------------------------------
G(-9---------9---------9------9---------9---------9------7---------
D(-7-7-7-7-7-7-7-7-7-7-7-7-7/-6-6-6-6-6-6-6-6-6-6-6-6-6/-5-5-5-5-5-
A(-----------------------------------------------------------------
E(-----------------------------------------------------------------
P.M. . . . .   . . . .   . .    . . . .   . . . .   . .    . . . .

e(-----------------------------------------------------------------
B(-----------------------------------------------------------------
G(-7---------7------7---------7---------7------5---------5---------
D(-5-5-5-5-5-5-5-5/-4-4-4-4-4-4-4-4-4-4-4-4-4/-3-3-3-3-3-3-3-3-3-3-
A(-----------------------------------------------------------------
E(-----------------------------------------------------------------
P.M. . . . .   . .    . . . .   . . . .   . .    . . . .   . . . .

e(-------------------------------------------------------------------)
B(-------------------------------------------------------------------)
G(-5------9---------9---------9------11---------11---------11-----9=-)
D(-3-3-3/-7-7-7-7-7-7-7-7-7-7-7-7-7/--9-9-9-9-9--9-9-9-9-9--9-9-9-9=-)
A(----------------------------------------------------------------7=-)
E(----------------------------------------------------------------0=-)
P.M. . .    . . . .   . . . .   . .     . . . .    . . . .    . .

Pre-Chorus
Riff 5
e(---------------------------------------------------------------------)
B(-8---6-6-------------6-6---------8---6-6-----------------------------)
G(-7---7-7-----7-------7-7---------7---7-7-----10---9=-----------------)
D(-7---7-7-----7---5---7-7---8-8---7---7-7-----10---9=-----------------)
A(-----------0-5---5---------8-8-------------0--8---7=-7-8-7-5-7-5-----)
E(-----------------3---------6-6--------------------0=-------------8-7-)
P.M.                                                   . . . . . . . .

Chorus
Riff 6 (2x)

e(----------------------------------------------------------------------
B(----------------------------------------------------------------------
G(----------------------------------------------------------------------
D(----------------------------------------------------------------------
A(----------------------------------------------------------------------
E(---5-5-5-5-5-5-5-5-5-5-5-5-5-5-5-5-5-5-5-5-5-5-5-5-5-5-5-5/-3-3-3-3/--
P.M. . . . . . . . . . . . . . . . . . . . . . . . . . . . .  . . . .

e(-------------------------------------------------------------------
B(-------------------------------------------------------------------
G(-------------------------------------------------------------------
D(-------------------------------------------------------------------
A(-------------------------------------------------------------------
E(---1=--1-1-1-1-1-1-1-1-1-1-1-1-1-1-1-1-1-1-1-1-1-1-1-1-1-1-0-0-0-0-
P.M.     . . . . . . . . . . . . . . . . . . . . . . . . . . . . . .

e(-------------------------------------------------------------------
B(-------------------------------------------------------------------
G(-------------------------------------------------------------------
D(-------------------------------------------------------------------
A(---5=--5-5-5-5-5-5-5-5-5-5-5-5-5-5-5-5-5-5-5-5-5-5-5-5-5-5-5-5-5-5-
E(-------------------------------------------------------------------
P.M.     . . . . . . . . . . . . . . . . . . . . . . . . . . . . . .

1st ending
e(--------------------------------------------------------------------)
B(--------------------------------------------------------------------)
G(--------------------------------------------------------------------)
D(----------------------------------------------------------------3-6-)
A(----------------------------------------------------------3-5-7-----)
E(---3-3-3-3-3-3-3-3-3-3-3-3-3-3-3-3/-4-4-4-4-4-4-4-4-4-5-7-----------)
P.M. . . . . . . . . . . . . . . . .  . . . . . . . . . . . . . . . .

2nd ending
e(-------------------------------------------------------------------)
B(-------------------------------------------------------------------)
G(-------------------------------------------------------------------)
D(-------------------------------------------------------------------)
A(---7=--7-7-7-7-7-7-7-7-7-7-7-7-7-7-7-7-7-7-7-7-7-7-7-7-7-7-7-7-7-7-)
E(-------------------------------------------------------------------)
P.M.     . . . . . . . . . . . . . . . . . . . . . . . . . . . . . .

Main Theme - Riff 1 (2x)
Main Theme - Riff 2

Guitar Solo (8 bars)                 Keyboard Solo (8 bars)
Basic Chord (no actual rhythm part)  Basic Chord (no actual rhythm part)
e(-----------------)                 e(-------------------)
B(-----------------)                 B(-------------------)
G(---4===----------)                 G(---7===------------)
D(---4===----------)                 D(---7===------------)
A(---2===----------)                 A(---5===------------)
E(-----------------)                 E(-------------------)


Interlude
(Guitar and Keyboards)

e(-8-10-11-8-10-11-8-10-11-8-10-11-8-10-11-8/-10-11-13-10-11-13-10-11-13
B(----------------------------------------------------------------------
G(----------------------------------------------------------------------
D(----------------------------------------------------------------------
A(----------------------------------------------------------------------
E(----------------------------------------------------------------------

e(-10-11-13-10-11-13-10/-11-13-15-11-13-15-11-13-15-11-13-15-11-13-15-11
B(----------------------------------------------------------------------
G(----------------------------------------------------------------------
D(----------------------------------------------------------------------
A(----------------------------------------------------------------------
E(----------------------------------------------------------------------

e(-10-11-13-10-11-13-10-11-13-10-11-13-10-11-13-10/-8-10-11-8-10-11-8-10
B(----------------------------------------------------------------------
G(----------------------------------------------------------------------
D(----------------------------------------------------------------------
A(----------------------------------------------------------------------
E(----------------------------------------------------------------------

e(-11-8-10-11-8-10-11-8/-7-8-10-7-8-10-7-8-10-7-8-10-7-8-10-7-
B(------------------------------------------------------------
G(------------------------------------------------------------
D(------------------------------------------------------------
A(------------------------------------------------------------
E(------------------------------------------------------------

e(-16-13-15-16-15-13-15-11-13-15-13-11-13-10-11-13-11-10-11-8-10-11-10-8
B(----------------------------------------------------------------------
G(----------------------------------------------------------------------
D(----------------------------------------------------------------------
A(----------------------------------------------------------------------
E(----------------------------------------------------------------------

e(-15-11-13-15-13-11-13-10-11-13-11-10-11-8-10-11-10-8-10-7-8-10-8-7-
B(-------------------------------------------------------------------
G(-------------------------------------------------------------------
D(-------------------------------------------------------------------
A(-------------------------------------------------------------------
E(-------------------------------------------------------------------

e(-------------------------------------------------------------
B(-9-6-8-9-8-6-------------------------------------------------
G(-------------8-5-7-8-7-5-8-5-7-8-7-5-8-5-7-8-7-5-------------
D(-------------------------------------------------6-3-5-6-5-3-
A(-------------------------------------------------------------
E(-------------------------------------------------------------

e(-------------------------------------)------
B(-------------------------------------)------
G(-------------------------------------)------
D(-------------------------------------)------
A(-6-3-5-6-5-3-5-2-3-5-3-2-------------)------
E(-------------------------4-1-3-4-3-1-)-5=---


Chorus     - Riff 6 (2x)
Main Theme - Riff 1 (4x)


Cadenza

e(----------------------------------17=---)
B(---10=----------------------------------)
G(-----------[improvised solo]------------)
D(-----------------------------------7=---)
A(-----------------------------------7=---)
E(-----------------------------------5=---)




Symbol explanation:

P.M.  Palm Mute (notes marked with dot)
/     slide
=     sustained



Important: The song above is NOT stored on the Chordie server. The original song is hosted at www.xguitar.com. Chordie works as a search engine and provides on-the-fly formatting. Chordie does not index songs against artists'/composers' will. To remove this song please click here.

This song is displayed as text-only. Transposing and tuning is only available for chordpro-songs.

Login - add to songbook

Rating click stars to rate

Layout
Accuracy

SHARE PAGE  




You need to log in to post comments