Guitar Tabs, Chords and Lyrics


S.O.S.    Stratovarius



tuned down half a step

Intro

e(------------------)
B(------------------)
G(---7=---7=---7=---)
D(---7=---7=---7=---)
A(---5=---5=---5=---)
E(------------------)

Riff 1

e(--------------------------------------------------------------------
B(-8(10)-8-6-6-8-10-10-10(11)-10-8=-8-10-11-11(13)-11-10-8/-6-8-8(10)-
G(--------------------------------------------------------------------
D(--------------------------------------------------------------------
A(--------------------------------------------------------------------
E(--------------------------------------------------------------------
   b                    b                    b                  b

e(--------------------------------------------------------------------)
B(-8-6-----6-/11(13)-11-10-10-10(11)-10-8-6---------------------------)
G(-----7-9----------------------------------9-7=---6-7-6-4/-3-------6-)
D(------------------------------------------------------------5-4-2---)
A(--------------------------------------------------------------------)
E(--------------------------------------------------------------------)
P.M.           b               b                   . . . .  . . . .


Pre-Verse
Riff 2

e(-----------------------------------------------------)
B(-----------------------------------------------------)
G(-------7-----7-----7-----7-----7-----7-----7-----7---)
D(-------7-----7-----7-----7-----7-----7-----7-----7---)
A(---5-5-5-5-5-5-5-5-5-5-5-5-5-5-5-5-5-5-5-5-5-5-5-5---)
E(-----------------------------------------------------)
P.M. . .   . .   . .   . .   . .   . .   . .   . .


Verse 1
Riff 3 (clean)
                                               dist.e(---1=---3=---1=---3=---1=---3=---1=---3=---)------
B(---3=---1=---3=---1=---3=---1=---3=---1=---)------
G(---2=---0=---2=---0=---2=---0=---2=---0=---)------
D(---0=---2=---0=---2=---0=---2=---0=---2=---)------
A(---0=---3=---0=---3=---0=---3=---0=---3=---)--x/--
E(-------------------------------------------)------


Verse 2
Riff 4 (2x)

e(-----------------------------------------------------------------
B(-----------------------------------------------------------------
G(---7-----7-----7-----7-----7---7/-5-----5-----5-----5-----5---5/-
D(---7-----7-----7-----7-----7---7/-5-----5-----5-----5-----5---5/-
A(---5-5-5-5-5-5-5-5-5-5-5-5-5-5-5/-3-3-3-3-3-3-3-3-3-3-3-3-3-3-3/-
E(-----------------------------------------------------------------
P.M.   . .   . .   . .   . .   .      . .   . .   . .   . .   .

1st ending
e(-----------------------------------------------------------------
B(-----------------------------------------------------------------
G(---3-----3-----3-----3-----3---3/-2-----2-----2-----2-----2---2/-
D(---3-----3-----3-----3-----3---3/-2-----2-----2-----2-----2---2/-
A(---1-1-1-1-1-1-1-1-1-1-1-1-1-1-1/-0-0-0-0-0-0-0-0-0-0-0-0-0-0-0/-
E(-----------------------------------------------------------------
P.M.   . .   . .   . .   . .   .      . .   . .   . .   . .   .

2nd ending
e(-----------------------------)
B(-----------------------------)
G(---3=---5=---------------3-5-)
D(---3=---5=---------3-5-7-----)
A(---1=---3=---3-5-7-----------)
E(-----------------------------)


Pre-Chorus 1
Riff 5

e(----------------------------------------------------------------------
B(----------------------------------------------------------------------
G(---7=--------5=--------3=---5=---5-----5-----5-5/-7=--------5=---3=---
D(---7=---3=---5=---5=---3=---5=---5-----5-----5-5/-7=---3=---5=---3=---
A(---5=---3=---3=---5=---1=---3=---3-3-3-3-3-3-3-3/-5=---3=---3=---1=---
E(--------1=--------3=-----------------------------------1=-------------
P.M.                                 . .   . .

     optional ending a       optional ending b
e(-----------------------)------------------------)
B(-----------------------)------------------------)
G(---2-2-2-2-2-2-2-2-2---)------------------------)
D(---2-2-2-2-2-2-2-2-2---)---7-8-7-5----------7---)
A(---0-0-0-0-0-0-0-0-0---)-----------8-7-5/-4-7---)
E(-----------------------)--------------------5---)
P.M. . . . . . . . .         . . . . . . .  .


Chorus
Riff 6 (2x)

e(---------------------------------------------------------------
B(---------------------------------------------------------------G(-------7-----7-----7-----7-----7-----7-----7-----7-----7-----7-
D(-------7-----7-----7-----7-----7-----7-----7-----7-----7-----7-
A(---5-5-5-5-5-5-5-5-5-5-5-5-5-5-5-5-5-5-5-5-5-5-5-5-5-5-5-5-5-5-
E(---------------------------------------------------------------
P.M. . .   . .   . .   . .   . .   . .   . .   . .   . .   . .

     1st ending                 2nd ending
e(--------------------------)-----------------------------------)-------
B(--------------------------)-----------------------------------)-------
G(-------7-----7/-3=---3/-5-)-------7-----7/-3-3-3-3-3-3-3-3-3/-)-(7=)--
D(-------7-----7/-3=---3/-5-)-------7-----7/-3-3-3-3-3-3-3-3-3/-)-(7=)--
A(---5-5-5-5-5-5/-1=---1/-3-)---5-5-5-5-5-5/-1-1-1-1-1-1-1-1-1/-)-(5=)--
E(--------------------------)-----------------------------------)-------
P.M. . .   . .                  . .   . .      . . . . . . .


Interlude 1


Guitar Solo
Rhythm Part a (3x)
                                                      1st/2nd 3rd ending
e(-----------------------------------------------------------)-------)
B(-----------------------------------------------------------)-------)
G(---9---------------------9/-7/-5---------------------5/-7/-)-5/-4/-)
D(---9---------------------9/-7/-5---------------------5/-7/-)-5/-4/-)
A(---7-7-7-7-7-7-7-7-7-7-7-7/-5/-3-3-3-3-3-3-3-3-3-3-3-3/-5/-)-3/-2/-)
E(-----------------------------------------------------------)-------)
P.M.   . . . . . . . . . .         . . . . . . . . . .

Rhythm Part b

e(---------------------------------------------------------------)------
B(---------------------------------------------------------------)------
G(---2-----------------------------4-----------------------------)------
D(---2-----------------------------4-----------------------------)-(2=)-
A(---0-0-0-0-0-0-0-0-0-0-0-0-0-0-0-2-2-2-2-2-2-2-2-2-2-2-2-2-2-2-)-(2=)-
E(---------------------------------------------------------------)-(0=)-
P.M.   . . . . . . . . . . . . . .   . . . . . . . . . . . . . .


Interlude 2


Pre-Chorus 2
Riff 7

e(---------------------------------------------------------------------
B(---------------------------------------------------------------------
G(-------------7=--------5=---7=---7-----7-----7-7-----------7=---5=---
D(---2=---5=---7=---7=---5=---7=---7-----7-----7-7-2=---5=---7=---5=---
A(---2=---5=---5=---7=---3=---5=---5-5-5-5-5-5-5-5-2=---5=---5=---3=---
E(---0=---3=--------5=-----------------------------0=---3=-------------
P.M.                                 . .   . .

e(------------------------)
B(------------------------)
G(---7=---------------5-7-)
D(---7=---------5-7-9-----)
A(---5=---5-7-9-----------)
E(------------------------)

 Pre-Chorus 3
Riff 8

e(----------------------------------------------------------------------
B(---8=------------------4=---6=---6-----6-----6-6/-8=------------------
G(---7=---3=--------5=---3=---5=---5-----5-----5-5/-7=---3=--------8=---
D(---5=---3=---3=---5=---1=---3=---3-3-3-3-3-3-3-3/-5=---3=---3=---8=---
A(--------1=---3=---3=-----------------------------------1=---3=---6=---
E(-------------1=---------------------------------------------1=--------
P.M.                                 . .   . .

e(---------------------)
B(---------------------)
G(---7-7-7-7-7-7-7-7-7-)
D(---7-7-7-7-7-7-7-7-7-)
A(---5-5-5-5-5-5-5-5-5-)
E(---------------------)
P.M.   . . . . . . .


Outro
(Guitar Solo 2)

e(-----------------------------------------------------20-20(22)=---
B(--------------8-10=---13-15=---17-18=---20-20(22)=----------------
G(-7=---9-10=-------------------------------------------------------
D(------------------------------------------------------------------
A(------------------------------------------------------------------
E(------------------------------------------------------------------
                                              b            b
          fade out
e(---24-24(25)=---)
B(----------------)
G(----------------)
D(----------------)
A(----------------)
E(----------------)


Important: The song above is NOT stored on the Chordie server. The original song is hosted at www.xguitar.com. Chordie works as a search engine and provides on-the-fly formatting. Chordie does not index songs against artists'/composers' will. To remove this song please click here.

This song is displayed as text-only. Transposing and tuning is only available for chordpro-songs.

Login - add to songbook

Rating click stars to rate

Layout
Accuracy

SHARE PAGE  




You need to log in to post comments