Chordie logo

Eagleheart    Stratovarius



EagleHeart by Stratovarius
Hope You like it !!
Standard Tunning ( EADGBE )
(/Distortion...)

E-----------------------------------------------------------------------------------
B-----------------------------------------------------------------------------------
G-/12-12---15-15---13-12-10-10---13-13---12-10-8---15-13-12-10-8-8/12-13-12-10------
D-----------------------------------------------------------------------------------
A-----------------------------------------------------------------------------------
E-----------------------------------------------------------------------------------

E-----------------------------------------------------------------------------------
B-----------------------------------------------------------------------------------
G-/12-12---15-15---13-12-10-10---13-13---12-10-8---15-13-12-10-8-8~---12-10-8~------
D-----------------------------------------------------------------------------------
A-----------------------------------------------------------------------------------
E-----------------------------------------------------------------------------------

And here is the SOLO =D

|-11-10-8--------------------8-10-11-13-15---11----15-18/16-16-15-15-13-11-10-------
|---------8----------------8------------------13----------------------------13-15-16
|-----------8h7--------7-8-----------------------12----------------------12---------
|---------------10-9-10-----------------------------13-12----------12-13------------
|---------------------------------------------------------15-14-15------------------
|-----------------------------------------------------------------------------------

Final Riff

|---------------------------------------------------------------------------
|-------11-11-11/9-8-------9-9-8-------9/11/9-8-6-----6/8-9/8---------------
|-10/12-12--------------10-----------10-8------------8----------10----------
|---------------------------------------------------------------------------
|---------------------------------------------------------------------------
|---------------------------------------------------------------------------
|----------------------------------------------------------------------------
|-------11-11-11/9-8-------9-9-8-------9/11/9-8-6----------------------------
|-10/12-12--------------10-----------10-8------------8---8/12---10/12/10---8-
|----------------------------------------------------------------------------
|----------------------------------------------------------------------------
|----------------------------------------------------------------------------


|--------18-18-18/16------16-16-15--------16/18/16-15-13----13/15-16/15---
|-20-20--------------18-------------18-16----------------16-------------18
|-------------------------------------------------------------------------
|-------------------------------------------------------------------------
|-------------------------------------------------------------------------
|-------------------------------------------------------------------------

Hope You Like It !!  e-mail Me for any kind of Suggestion Thx ! Stigmate70@hotmail.com


Important: The song above is NOT stored on the Chordie server. The original song is hosted at www.xguitar.com. Chordie works as a search engine and provides on-the-fly formatting. Chordie does not index songs against artists/composers will. To remove this song please click here.

This song is displayed as text-only. Transposing and tuning is only available for chordpro-songs.

Login - add to songbook

Rating click stars to rate

Layout
Accuracy

SHARE PAGE  

You need to log in to post comments