Guitar Tabs, Chords and Lyrics


Season of Change   Stratovarius

eb--------0---------------0----------------1-0-1------------0--0-0---------|


Hb------1---0-1---1-----0---0-0--0-------1-------1--------1--------1-------|


Gb----2---------2-----1--------1-------0-----------0-----------------2-----|

Db------------------------------------------------------4------------------|
Ab--0---------------0----------------0----------------0--------------------|
Eb-------------------------------------------------------------------------|
eb-------0-0-0------------2----------------2-------------------------------|
Hb-----1-------1--------1---1------------0---0-----------------------------|
Gb---------------2------------2--2-------------2---2-----------------------|
Db----3--------------2----------2------1---------1-------7-6-9-7-10-9-12-10|
Ab-0----------------0----------------2-------------------------------------|
Eb-------------------------------------------------------------------------|
eb--------0---------------0----------------1-0-1------------0--0-0---------|
Hb------1---0-1---1-----0---0-0--0-------1-------1--------1--------1-------|
Gb----2---------2-----1--------1-------0-----------0-----------------2-----|
Db------------------------------------------------------4------------------|
Ab--0---------------0----------------0----------------0--------------------|
Eb-------------------------------------------------------------------------|
eb-------0-0-0------------2----------------2----------------0-------------|
Hb-----1-------1--------1---1------------1--------------------1-----------|
Gb---------------2------------2--2-----2-----------1------------2---------| end Riff 1
Db----3--------------2----------2----------------2---2------------2-------|
Ab-0----------------0----------------2-----------------0------------0--0--|
Eb---------------------------------------------0--------------------------|
eb---------------------------------------|
Hb--/10~~---\8~~---\6~~---\5\3\1~~~~-----|
Gb---------------------------------------|
Db---------------------------------------|
Ab---------------------------------------|
Eb---------------------------------------|
eb-------------------------------------|
Bb-------------------------------------|
Gb-------------------------------------|
Db-7-7-----10-10-9-9-7-7-----10-10-9-9-|
Ab-----7-7---------------8-8-----------|
Eb-------------------------------------|
Let it be my [Am]dreams  Let it be my t[F]houghts
G Riff 2
All those things in my heart
One too many [A5]days  One too many [F5]years
G5 Riff 2
I wasted for nothing

Riff 3(w/Dist.)
eb-------------------------------------------------|
Hb-------------------------------------------------|
Gb-------------------------------------------------|
Db-10-10-------13-13-12-12-10-10-------13-13-12-12-|
Ab-------10-10-------------------11-11-------------|
Eb-------------------------------------------------|


I never rea[C5]lized  The truth is [G#]inside
A# Riff 3
Of every man for all to see
Listen to me [C5]now  I'm so close to [G#]you
A# Riff 3
Never felt like this before

Keyboard Solo
G is the chord that is played most of the time.But play F too.

Guitar Solo

eb-15p13p11-----------------------------------------------------------------------------------------|
Bb----------15p13p12----------------------------13-15~~--16-15--13-13-------------------------------|
Gb-------------------13p12p10----------------12-----------------------12-12----------------13-12~~--|
Db----------------------------13p12-10~~--13--------------------------------13-13-12-12-10----------|
Ab--------------------------------------------------------------------------------------------------|
Eb--------------------------------------------------------------------------------------------------|

                 [1/4]      [1/4]                                                      [1/2]                              
eb--------------------------------------------------------------------------------------------------|
Hb-----------------12^----------15-15-13-13-12-12----------20^--20~~--20-20--18-15-16-13-15-16-13-15|
Gb----12----12^--------13-13-12-------------------13-13-12------------------------------------------|
Db-12----12-----12----------------------------------------------------------------------------------|
Ab--------------------------------------------------------------------------------------------------|
Eb--------------------------------------------------------------------------------------------------|

Full Full 1/2 1/2
eb----20^-r20-20^-r20~~--22^-r22---15^-r15--16-15-13------------------------------------------------|
Bb-16------------------------------------------------16-15-13-15-13---------------------------------|
Gb------------------------------------------------------------------16-13-12-13---------------------|
Db------------------------------------------------------------------------------15-13---------------|
Ab------------------------------------------------------------------------------------17-15-14-15-17|
Eb--------------------------------------------------------------------------------------------------|
eb----------------------|
Hb----------------------|
Gb----------------------|
Db----------------------|
Ab-15-14-15-14----------|
Eb-------------16-15~~--|


Rhythm Guitar during Solo:
C G x2
eb---------------------------------------------------------------------------------------|
Hb---------------------------------------------------------------------------------------|
Gb:-------------------------------------------------------------------------------------:|
Db:-----5-6-3-5-5-5-5-5------5-6-3-5-5-5-5-5--------------------------------------------:|
Ab--3-3------------------3-3----------------------5-6-3-5-5-5-5-5------5-6-3-5-5-5-5-5---|
Eb--------------------------------------------3-3------------------3-3-------------------|


After Solo
x2 x2 x4
eb------------------------------------------------------------------------------|
Bb-----------------------|---------------------|----------------------|---------|
Gb:---------------------:|:-------------------:|:--------------------:|---------|
Db:-----3-4-1-3-3-3-3-3-:|:---6-7-4-6-6-6-6-6-:|:---9-10-7-9-9-9-9-9-:|---------|
Ab--1-1------------------|--4------------------|--7-------------------|-2~~-----|
Eb----------------------------------------------------------------------0~~-----|


Slow part

A A G G x2
eb-----7-8-7-------7-8-7--------7-8-7-------7-8-7--------5-6-5-------5-6-5--------5-6-5-------5-6-5----|
Hb---5-------5---5-------5----5-------5---5-------5----3-------3---3-------3----3-------3---3-------3--|
Gb:---------------------------------------------------------------------------------------------------:|
Db:7-----------7------------7-----------7------------5-----------5------------5-----------5-----------:|
Ab-----------------------------------------------------------------------------------------------------|
Eb-----------------------------------------------------------------------------------------------------|

    [C]                                             [C]                                         [Bb]                 
eb------10-11-10--------10-11-10---------10-11-10--------10-11-10--------8-9-8-------8-9-8--------8-9-8|

[Bb]
Hb----8----------8----8----------8-----8----------8----8----------8----6-------6---6-------6----6------|
Gb-----------------------------------------------------------------------------------------------------|
Db-10--------------10---------------10--------------10---------------8-----------8------------8--------|
Ab-----------------------------------------------------------------------------------------------------|
Eb-----------------------------------------------------------------------------------------------------|

G G E x4
eb-------8-9-8--------5-6-5-------5-6-5--------5-6-5-------5-6-5-----------2-3-2-------2-3-2-----|
Hb-6---6-------6----3-------3---3-------3----3-------3---3-------3--|----0-------0---0-------0---|
Gb------------------------------------------------------------------|:--------------------------:|
Db---8------------5-----------5------------5-----------5------------|:-2-----------2------------:|
Ab------------------------------------------------------------------|----------------------------|
Eb-----------------------------------------------------------------------------------------------|



Play E like this: play C like this:
eb-------------------------------------------------|
Hb-----------------------|-------------------------|
Gb-----------------------|-------------------------|
Db--9-----9---10-9-7-9---|-------------------------|
Ab--7-7-7-7-7-7--7-7-7---|-10-----10---12-10-9--10-|
Eb-------------------------8--8-8-8--8-8--8--8--8--|

pm..| pm pm..| pm

[E]The carousel is spinning fast
Better enjoy while it [C]lasts

Every moment is like gold
You'll remember when you're old     [E]


And the meaning of this life
Is to live and is to [C]die

Make the best out of your dreams
They are the world where you are [E]free


All the sorrow and the pain
Will be washed away by [C]rain

An eternal joy will come
It can be found by every[E]one


Though the end is drawing near
I'm not feeling any [C]fear

I have found the truth inside
After all the tears I [E]cry

Season of [C]Change

Repeat E ,C and fade out.

Important: The song above is NOT stored on the Chordie server. The original song is hosted at www.xguitar.com. Chordie works as a search engine and provides on-the-fly formatting. Chordie does not index songs against artists'/composers' will. To remove this song please click here.

Text color:
Chord color:
Chord grids: 
Font size:    
Page size: 

A5 Am Bb C C5 E F F5 G#
variations - click chord images

Login - add to songbook

Transpose chords

Tuning

Rating click stars to rate

Layout
Accuracy

SHARE PAGE  




You need to log in to post comments