Guitar Tabs, Chords and Lyrics


When the Night Meets the Day    Stratovarius



standard tuning

||------------------------------------------11-13-14-13-11~-13-14-13~|
||-------------------------------------------------------------------|
||--su8~-10~-10~-11-13-11-10-8~-8-10-11-10-8~------------------------|
||------8------------------------------------------------------------|
||-------------------------------------------------------------------|
||-------------------------------------------------------------------|

|-------------------------------------------------------------------|
|--11h12p11p9h11~---------------------------------------------------|
|-------------------------------------------------------------------|
|-------------------------------------------------------------------|
|-------------------------------------------------------------------|
|-------------------------------------------------------------------|

|------------------------------------------11-13-14-13-11~-13-14-13~|
|-------------------------------------------------------------------|
|--su8~-10~-10~-11-13-11-10-8~-8-10-11-10-8~------------------------|
|------8------------------------------------------------------------|
|-------------------------------------------------------------------|
|-------------------------------------------------------------------|

|--19-18~sd---------------------------------------------------------|
|-------------------------------------------------------------------|
|-------------------------------------------------------------------|
|-------------------------------------------------------------------|
|-------------------------------------------------------------------|
|-------------------------------------------------------------------|

|-------------------------------------------------------------------|
|--16~-14~-12~------------------------------------------------------|
|--------------13-13-11-13-15-16-17/18-16-15------------------------|
|-------------------------------------------------------------------|
|-------------------------------------------------------------------|
|-------------------------------------------------------------------|

|-------------------------------------------------------------------||
|--16~-14~-12~--------------------16/18~\\16-16~---------------------||
|--------------16-13-15-13-11-10~-----------------------------------||
|-------------------------------------------------------------------||
|-------------------------------------------------------------------||


Important: The song above is NOT stored on the Chordie server. The original song is hosted at www.xguitar.com. Chordie works as a search engine and provides on-the-fly formatting. Chordie does not index songs against artists'/composers' will. To remove this song please click here.

This song is displayed as text-only. Transposing and tuning is only available for chordpro-songs.

Login - add to songbook

Rating click stars to rate

Layout
Accuracy

SHARE PAGE  




You need to log in to post comments