Guitar Tabs, Chords and Lyrics


Call of the Wilderness    Stratovarius



................................................



E|-^10-------10--8--------8-|--6--------6---5-----------|-^8-------8--6--------6----|--5--------5--0------------|
B|-^6--6------------6-------|-----6---------------------|-^6-6-----------6----------|-----6---------------------|
G|-^7-----7------------7----|--------7------------------|-^7----7-----------7-------|--------7------------------|
D|-^0-----------------------|---------------------------|-^0------------------------|---------------------------|
A|--------------------------|---------------------------|---------------------------|---------------------------|
e|--------------------------|---------------------------|---------------------------|---------------------------|


|--6--------6--5--------5---|--3--------3---------------|--0--------0--0--------0---|---------------------------|
|-----3-----------3---------|-----3--------6-----6------|-----3-----------3---------|-----2----3----5----8------|
|--------3-----------3------|--------3--------3---------|--------3-----------3------|---------------------------|
|--5------------------------|--5-----------------3------|--2--------2--------2------|---------------------------|
|---------------------------|---------------------------|---------------------------|-----0----2----4----7------|
|---------------------------|---------------------------|---------------------------|---------------------------|


|-^10-------10--8--------8--|--6--------6---5-----------|-^8-------8--6--------6----|--5--------5--0------------|
|-^6--6------------6--------|-----6---------------------|-^6-6-----------6----------|-----6---------------------|
|-^7-----7------------7-----|--------7------------------|-^7----7-----------7-------|--------7------------------|
|-^0------------------------|---------------------------|-^0------------------------|---------------------------|
|---------------------------|---------------------------|---------------------------|---------------------------|
|---------------------------|---------------------------|---------------------------|---------------------------|


|--6--------6--5--------5---|--3--------3---------------|--0--------0--0--------0---|---------------------------|
|-----3-----------3---------|-----3--------6-----6------|-----3-----------3---------|-----2----3----5----8------|
|--------3-----------3------|--------3--------3---------|--------3-----------3------|---------------------------|
|--5------------------------|--5-----------------3------|--2--------2--------2------|---------------------------|
|---------------------------|---------------------------|---------------------------|-----0----2----4----7------|
|---------------------------|---------------------------|---------------------------|---------------------------|


|---0-----------0-----------|---0-----------0-----------|---0-----------0-----------|---0-----------0-----------|
|------3-----------3--------|------3-----------3--------|------3-----------3--------|------3-----------3--------|
|---------3-----------3-----|---------3-----------3-----|---------3-----------3-----|---------3-----------3-----|
|---------------------------|---------------------------|---------------------------|---------------------------|
|---1-----------------------|---------------0-----------|---------------------------|---------------0-----------|
|---------------------------|---------------------------|---3-----------------------|---------------------------|


|---0-----------0-----------|---3-----------3-----------|
|------3-----------3--------|------5-----------5--------|
|---------3-----------3-----|---------5-----------5-----|
|---------------------------|---------------------------|
|---1-----------------------|---3-----------------------|
|---------------------------|---------------------------|


|---5--3h5p3--1---5--3h5p3--1----0---3----1---|
|---------------------------------------------|
|---------------------------------------------|    --> Guitar 2
|---0-----------------------------------------|
|---------------------------------------------|
|---------------------------------------------|
|                                             |
|---------------------------------------------|
|---6--5h6p5--3---6--5h6p5--3----2---5----3---|
|---------------------------------------------|
|---0-----------------------------------------|    --> Guitar 1
|---------------------------------------------|
|---------------------------------------------|


|--10-------10--8--------8--|--6--------6---5-----------|--8-------8--6--------6----|--5--------5--0------------|
|-----6------------6--------|-----6---------------------|----6-----------6----------|-----6---------------------|
|--------7------------7-----|--------7------------------|-------7-----------7-------|--------7------------------|
|--0------------------------|---------------------------|--0------------------------|---------------------------|
|---------------------------|---------------------------|---------------------------|---------------------------|
|---------------------------|---------------------------|---------------------------|---------------------------|


|--6--------6--5--------5---|--3--------3---------------|--0--------0--0--------0---|---------------------------|
|-----3-----------3---------|-----3--------6-----6------|-----3-----------3---------|-----2----3----5----8------|
|--------3-----------3------|--------3--------3---------|--------3-----------3------|---------------------------|
|--5------------------------|--5-----------------3------|--2--------2--------2------|---------------------------|
|---------------------------|---------------------------|---------------------------|-----0----2----4----7------|
|---------------------------|---------------------------|---------------------------|---------------------------|


|---------------0-----8--6--|---^10---------------------|
|---------6--------6--------|---^6----------------------|
|------7-----7--------------|---^7----------------------|
|---0-----------------------|---^0----------------------|
|---------------------------|---------------------------|
|---------------------------|---------------------------|





Important: The song above is NOT stored on the Chordie server. The original song is hosted at www.xguitar.com. Chordie works as a search engine and provides on-the-fly formatting. Chordie does not index songs against artists'/composers' will. To remove this song please click here.

This song is displayed as text-only. Transposing and tuning is only available for chordpro-songs.

Login - add to songbook

Rating click stars to rate

Layout
Accuracy

SHARE PAGE  




You need to log in to post comments