Guitar Tabs, Chords and Lyrics


Infinity    Stratovarius



Hope you like it enjoy !!

Tune Down 1/2 step!

		    Riff 1
E----------------------------------------------------------------------------------|
B-----------------|----------------------------------------------------------------|
G--Intro-(Drums)--|----------------------------------------------------------------|
D----(7-sec.)-----|----------9~~-----------7~~-----------5~~-----------7~~---------|
A-----------------|----------7~~-----------5~~-----------3~~-----------5~~---------|
E--------------------0-0--0--------0-0--0--------0-0--0--------0-0--0--------0-0--0|
		    pm.....|      pm......|     pm.....|      pm.....|      pm.....|

E----------------------------------------------------------------------------------|
B----------------------------------------------------------------------------------|
G----------------------------------------------------------------------------------|
D-9~~-----------7~~-----------5~~-----------7~~-----------9~~-----------7~~--------|
A-7~~-----------5~~-----------3~~-----------5~~-----------7~~-----------5~~--------|
E-------0-0--0--------0-0--0--------0-0--0--------0-0-0-0-------0-0-0-0-------0-0-0|
       pm.....|	     pm.....|	   pm.....|      pm......|     pm......|     pm....

							            end Riff 1
E----------------------------------------------------------------------------------|
B----------------------------------------------------------------------------------|
G----------------------------------------------------------------------------------|
D---5~~-----------7~~-----------9~~-----------7~~-----------5~~------------7~~--\\--|
A---3~~-----------5~~-----------7~~-----------5~~-----------3~~------------5~~--\\--|
E-0-------0-0-0-0-------0-0-0-0-------0-0-0-0-------0-0-0-0-------0-0-0-0----------|
 ..|     pm......|     pm......|     pm......|     pm......|     pm......|

  Verse 1 (with clean sound)
E------0---0------0----------3---3------3--------2---2------2----------------------|
B------0---0------0----------3---3------3--------3---3------3-------2---2------2---|
G------0---0------0----------4---4------4------2-----2----2---------2---2------2---|
D------2---2------2----------5---5------5---/0----------0---------2-----2----2-----|
A----2----------2----------5----------5------------------------\\0----------0-------|
E--0----------0------/2--3----------3----------------------------------------------|

E------0---0-----0----------3---3------5--------2---2------2---0)------------------|
B------0---0-----0----------3---3------5--------3---3------3---0(---|--------------|
G------0---0-----0----------4---4------5------2-----2----2-----0)---|--------------|
D------2---2-----2----------5---5------4---/0----------0-------2(---|----------9~~-|
A----2---------2----------5----------5-------------------------3)---|----------7~~-|
E--0---------0------/2--3----------3-----------------------------------0-0-0-0-----|
								      pm......|

E----------------------------------------------------------------------------------|
B----------------------------------------------------------------------------------|
G----------------------------------------------------------------------------------|
D-----------7~~------------5~~------------7~~------------9~~------------7~~--------|
A-----------5~~------------3~~------------5~~------------7~~------------5~~--------|
E--0-0-0-0--------0-0-0-0--------0-0-0-0--------0-0-0-0--------0-0-0-0--------0-0-0|
  pm......|      pm......|      pm......|     pm.......|      pm......|      pm....

			      Verse 2
E----------------------------------------------------------------------------------|
B----------------------------|-----------------------------------------------------|
G----------------------------|*----------------------------------------------------|
D----5~~------------7~~-7\\---|*--------A.H.----------------A.H.----------------A.H.|
A----3~~------------5~~-5\\---|----------7~-----\\2-2---------7~-----\\2-2---------7~-|
E-0--------0-0-0-0---------------0-0-0-----0-0-------0-0-0-----0-0-------0-0-0-----|
 ..|      pm......|		pm....|   pm..|     pm....|   pm..|     pm....|

	     x4   Bridge
E----------------------------------------------------------------------------------|
B---------------|--8---7---5~~----8---7---5~~--------------------------------------|
G--------------*|--7---7---7~~~---7---7---7~~--------------------------------------|
D---------5~~--*|--7---7---7~~~---7---7---7~~---\\2---2---2---------5~---5-5-5-5-5\\-|
A-----\\2--3~~---|--5---5---5~~----5---5---5~~---\\0---0---0----0-2--3~---3-3-3-3-3\\-|
E-0-0------------------------------------------------------------------------------|
 pm..|									 pm....|

  Chorus
E----------------------------------------------------------------------------------|
B----------------------------------------------------------------------------------|
G----------------------------------------------------------------------------------|
D-----------9~~-----------7~~-----------5~~-----------7~~------------9~~-----------|
A-----------7~~-----------5~~-----------3~~-----------5~~------------7~~-----------|
E--0-0-0-0--------0-0--0--------0-0--0--------0-0--0--------0-0-0-0--------0-0-0-0-|
  pm......|	 pm.....|     pm......|      pm.....|      pm......|      pm......|

E----------------------------------------------------------------------------------|
B----------------------------------------------------------------------------------|
G----------------------------------------------------------------------------------|
D-7~~------------5~~------------7~~-----------9~~------------7~~------------5~~----|
A-5~~------------3~~------------5~~-----------7~~------------5~~------------3~~----|
E-------0-0-0-0--------0-0-0-0--------0-0-0-0-------0-0-0-0--------0-0-0-0--------0|
      pm........|     pm......|	     pm......|     pm......|      pm......|      pm

E----------------------------------------------------------------------------------|
B----------------------------------------------------------------------------------|
G----------------------------------------------------------------------------------|
D--------7~~------------9~~------------7~~------------5~~------------7~~---7\\------|
A--------5~~------------7~~------------5~~------------3~~------------5~~---5\\------|
E-0-0-0--------0-0-0-0--------0-0-0-0--------0-0-0-0--------0-0-0-0----------------|
 ......|      pm......|      pm......|      pm......|      pm......|

  Verse 3								        x2
E----------------------------------------------------------------------------------|
B----------------------------------------------------------------------------------|
G*--------------------------------------------------------------------------------*|
D*-------------------------------------------------------------------/8~~---8\\----*|
A---5----------------------------------------------------------------/6~~---6\\-----|
E---3-3-3-3-3-3-3-3-3-3-3-3-3-3-3-3-3-3-3-3-3-3-3-3-3-3-3-3-3-3-3-3----------------|
     pm............................................................|

E----------------------------------------------------------------------------------|
B----------------------------------------------------------------------------------|
G-------A.H.-------------A.H.----------------A.H.--------------A.H.----------------|
D--------5~----------------5~-----------------5~-----------------5~---------/8~~--8|
A---------------4h5----------------4h5----------------4h5----------------4--/6~~--6|
E--3-3-3----3-3------3-3-3-----3-3------3-3-3-----3-3------3-3-3-----3-3-----------|
  pm....|  pm..|    pm....|   pm..|    pm....|   pm..|    pm....|   pm..|

E----------------------------------------------------------------------------------|
B----------------------------------------------------------------------------------|
G----------A.H.--------------A.H.----------------A.H.---------------A.H.-----------|
D\\----------5~-----------------5~-----------------5~-----------------5~--------/7~~|
A\\------------------4h5----------------4h5----------------4h5---------------4--/5~~|
E-----3-3-3-----3-3------3-3-3-----3-3------3-3-3-----3-3------3-3-3----3-3--------|
     pm....|   pm..|    pm....|   pm..|    pm....|   pm..|    pm....|  pm..|

E----------------------------------------------------------------------------------|
B-------------|--------------------------------------------------------------------|
G-------------|--------------------------------------------------------------------|
D----7~~------|--3-----------------------------------------------------------------|
A----5~~------|--1-1-1-1-1-1-1-1-1-1-1-1-1-1-1-1-1-1-1-1-1-------------------------|
E----------------------------------------------------------\\2-2-2-2-2-2-2-2-2-2-2-2|
		  pm...............................................................

E----------------------------------------------------------------------------------|
B----------------------------------------------------------------------------------|
G----------------------------------------------------------------------------------|
D----------------------------------------------------------------------------------|
A---------------------------/5-5-5-5-5-5-5-5-5-5-5-5-5-5-5-5-5-5-5-5-5h7-7-7-7-7-7-|
E-2-2-2-2-2-2-2-2-2-2-2-2-2--------------------------------------------------------|
 ...................................................................|   pm.........

E----------------------------------------------------------------------------------|
B----------------------------------------------------------------------------------|
G----------------------------------------------------------------------------------|
D----------------------------------------------------------------------------------|
A-7-7-7-7-7-7-7-7-7-7-7-7-7-7-7-7-7-7-7-7-\\3-3-3-3-3-3-3-3-3-3-3-3-3-3-3-3-3-3-3-3-|
E----------------------------------------------------------------------------------|
 ..................................................................................

E----------------------------------------------------------------------------------|
B----------------------------------------------------------------------------------|
G----------------------------------------------------------------------------------|
D----------------------------------------------------------------------------------|
A-3-3-3-3--------------------------------------------------------------------------|
E---------\\4-4-4-4-4-4-4-4-4-4-4-4-4-4-4-4-4-4-4-4-4-4-4-\\0-0-0-0-0-0-0-0-0-0-0-0-0|
 ..................................................................................

E----------------------------------------------------------------------------------|
B----------------------------------------------------------------------------------|
G----------------------------------------------------------------------------------|
D----------------------------------------------------------------------------/-3---|
A----------------------------------------------------------------------------/-1---|
E-0-0-0-0-0-0-0-0-0-0-0-0-0-0h2-2-2-2-2-2-2-2-2-2-2-2-2-2-2-2-2-2-2-2-2-2-2--------|
 ..........................|   pm..........................................|

E----------------------------------------------------------------------------------|
B----------------------------------------------------------------------------------|
G----------------------------------------------------------------------------------|
D------------7------9-----\\5-----------------------------------------7------9------|
A-----4------5------7-----\\3------6------2------4-----/8------4------5------7------|
E-----2---------------------------4------0------2-----/6------2--------------------|

						        Verse 4 (with clean sound)
E-------------------------------------------------------------0---0------0---------|
B-----------------------------------------------------|-------0---0------0---------|
G-----------------------------------------------------|*------0---0------0---------|
D-\\5--------------------------------------------------|*------2---2------2---------|
A-\\3------6-------2-----------------------------------|-----2----------2----------5|
E---------4-------0-----0--0-0-0--0\\---0--0-0-0--0\\-------0----------0------/2--3--|

E-3---3------3-------2---2------2---------------------------0---0------0----------3|
B-3---3------3-------3---3------3------2---2-------2--------0---0------0----------3|
G-4---4------4-----2-----2----2--------2---2-------2--------0---0------2----------4|
D-5---5------5--/0----------0--------2-----2-----2----------2---2------2----------5|
A----------5----------------------\\0-----------0----------2----------2----------5--|
E--------3---------------------------------------------\\0----------0------/2--3----|

						 x2   Guitar Solo (with Wah Wah)
E---3------3-------2---2------2------0---0------0----------------------------------|
B---3------3-------3---3------3------0---0------0----|--/15------------15-15-15-15-|
G---4------4-----2-----2----2--------0---0------0---*|--/14--b(16)~~--(16-16-16-16)|
D---5------5--/0----------0--------2-----2----2-----*|-----------------------------|
A--------5----------------------\\3----------3--------|-----------------------------|
E------3---------------------------------------------------------------------------|

E----------------------------------------------------------------------------------|
B----------/15b(17)---r15~~~~15-/17-19-20-19-17----17------------------------------|
G-r14-\\12--------------------16-----------------19----19-16-0-16\\14-12----12-14-12-|
D----------------------------------------------------------------------14----------|
A----------------------------------------------------------------------------------|
E----------------------------------------------------------------------------------|

E----------------------------------------------------------------------------------|
B------------------A.H......|------------------------------------------------------|
G----14b--(16)-----(16)-(16)-r14-\\12--/14~~~--12---------------------------14-16-14|
D-14---------------------------------------------14-12-12h14~~~~--14-16-17---------|
A----------------------------------------------------------------------------------|
E----------------------------------------------------------------------------------|

E----------------------------------------------------------------------------15-17-|
B----------------------------------15-17-15----------------15-17-19-15-17-19-------|
G----------------14-16-17-14-16-17----------17-16-14-16-17-------------------------|
D-17-16-14-16-17-------------------------------------------------------------------|
A----------------------------------------------------------------------------------|
E----------------------------------------------------------------------------------|

E-19-17-15----------15-17-19-17-15/17\\15----------------15-17-19-17-15/17\\15-------|
B----------19-17-19----------------------19-17-15-17-19----------------------19-17-|
G----------------------------------------------------------------------------------|
D----------------------------------------------------------------------------------|
A----------------------------------------------------------------------------------|
E----------------------------------------------------------------------------------|

E----------15-17-19-17-15/17\\15----------------15-17-19~~----\\17--15-17-15\\14-15-14|
B-15-17-19----------------------19-17-15-17-19-------------------------------------|
G----------------------------------------------------------------------------------|
D----------------------------------------------------------------------------------|
A----------------------------------------------------------------------------------|
E----------------------------------------------------------------------------------|

E-12-14-12----12-------------------------------------------------------------------|
B----------15----15-13-12----------------------------12-13-12----------------------|
G-------------------------14-12-11----------11-12-14----------14-12-11-------------|
D----------------------------------14-12-14----------------------------14-12-------|
A----------------------------------------------------------------------------15-14-|
E----------------------------------------------------------------------------------|

									 end Guitar
E-----------------------------------------------------------------------------17-19|
B--------------------12-13~~-----------------------15/17~~-----------17-19-20------|
G-----------11-12-14----------------------14-16-17---------\\16-17-19---------------|
D-----12-14----------------------14-16-17------------------------------------------|
A-15-------------------------\\17---------------------------------------------------|
E----------------------------------------------------------------------------------|

  Solo   Two Guitars:
E-~~~----(19)~~--------------------------\\17~~~~------------------------\\15~~~~----|
B------|---------------------------------------------------------------------------|
G------|---------------------------------------------------------------------------|
D------|----------9----------9-------7/9----------9----------9------7/9----------9-|
A------|----------7----------7-------5/7----------7----------7------5/7----------7-|
E---------0-0--0----0--0--0-----0-0-------0-0--0----0--0--0-----0-0------0-0--0----|

E------------------------\\14~~~~-----\\---------------------------------------------|
B----------------------------------------------------------------------------------|
G----------------------------------------------------------------------------------|
D----------9-------7/9----------9----------9------7/9----------9----------9------7/|
A----------7-------5/7----------7----------7------5/7----------7----------7------5/|
E-0--0--0-----0-0-------0-0--0----0--0--0-----0-0------0-0--0----0--0--0-----0-0---|

E----------------------------------------------------------------------------------|
B----------------------------------------------------------------------------------|
G----------------------------------------------------------------------------------|
D/9----------9----------9-------7/9----------9----------9-------7/9----------9-----|
A/7----------7----------7-------5/7----------7----------7-------5/7----------7-----|
E----0-0--0----0--0--0-----0-0-------0-0--0----0--0--0-----0-0-------0-0--0----0--0|

						   	      Outro
E----------------------------------------------------------------------------------|
B------------------------------------|----------------------|----------------------|
G------------------------------------|--Chorus-With-Riff-1--|*---------------------|
D-----9-------7/9-------------/4~~---|----------------------|*---------------9~~---|
A-----7-------5/7-----------0-/2~~---|----------------------|----------------7~~---|
E--0-----0-0---------\\0-2-3-------------------------------------0-0-0-0-0-0--------|
							       pm..........|
                                                       x5Ѕ
E----------------------------------------------------------||
B----------------------------------------------------------||
G---------------------------------------------------------*|| end
D--------------7~~----------------5~~----------------7~~--*||
A--------------5~~----------------3~~----------------5~~---|| *= start fade out
E-0-0-0-0-0-0--------0-0-0-0-0-0--------0-0-0-0-0-0--------||    on the 4 time
 pm..........|      pm..........|      pm..........|

--------------------------------------------------------------------------------------

  Rhythm Guitar during Guitar Solo
E----------------------------------------------------------------------------------|
B----------------------------------------------------------------------------------|
G----------------------------------------------------------------------------------|
D----------------------------------------------------------------------/7----------|
A--2-----------------------------/5-----------------------------5-\\-4--/5-5-5-5-5-5|
E--0-0-0-0-0-0-0-0-0-0-0-0-0-0h2-/3-3-3-3-3-3-3-3-3-3-3-3-3-3-3-3-\\-2--/5-5-5-5-5-5|
    pm......................|      pm..........................|         pm........

E----------------------------------------------------------------------------------|
B----------------------------------------------------------------------------------|
G----------------------------------------------------------------------------------|
D----------------------------------------------------------------------------------|
A-5-5-5-5-5-5-5-5-5--9-\\-7--7----------------------------------\\2------------------|
E-5-5-5-5-5-5-5-5-5--7-\\-5--5-5-5-5-5-5-5-5-5-5-5-5-5--5-5-3p2-\\0-0-0-0-0-0-0-0-0-0|
 ..................|         pm......................|           pm................

E----------------------------------------------------------------------------------|
B----------------------------------------------------------------------------------|
G----------------------------------------------------------------------------------|
D-------------------------------------------------/7------------------------------7|
A-----------/5-----------------------------5-/-7--/5-5-5-5-5-5-5-5-5-5-5-5-5-5-5--5|
E-0-0-0-0h2-/3-3-3-3-3-3-3-3-3-3-3-3-3-3-3-3-/-5--/5-5-5-5-5-5-5-5-5-5-5-5-5-5-5---|
 ......|      pm..........................|         pm..........................|

E------------------------------------------||
B------------------------------------------||
G------------------------------------------|| end
D-7--\\-5-----------------------------------||
A-5--\\-3-3-3-3-3-3-3-3-3-3-3-3-3-3-3-\\-----||
E------3-3-3-3-3-3-3-3-3-3-3-3-3-3-3-\\-----||


Important: The song above is NOT stored on the Chordie server. The original song is hosted at www.xguitar.com. Chordie works as a search engine and provides on-the-fly formatting. Chordie does not index songs against artists'/composers' will. To remove this song please click here.

This song is displayed as text-only. Transposing and tuning is only available for chordpro-songs.

Login - add to songbook

Rating click stars to rate

Layout
Accuracy

SHARE PAGE  




You need to log in to post comments